  0
SECTION
  2
HEADER
  9
$ACADVER
  1
AC1018
  9
$ACADMAINTVER
 70
     0
  9
$DWGCODEPAGE
  3
ANSI_1252
  9
$INSBASE
 10
0.0
 20
0.0
 30
0.0
  9
$EXTMIN
 10
-68.09816625139
 20
-50.16058204665214
 30
0.0
  9
$EXTMAX
 10
-30.37056082418962
 20
-8.258551965699564
 30
0.0
  9
$LIMMIN
 10
0.0
 20
0.0
  9
$LIMMAX
 10
12.0
 20
9.0
  9
$ORTHOMODE
 70
     0
  9
$REGENMODE
 70
     1
  9
$FILLMODE
 70
     1
  9
$QTEXTMODE
 70
     0
  9
$MIRRTEXT
 70
     1
  9
$LTSCALE
 40
1.0
  9
$ATTMODE
 70
     1
  9
$TEXTSIZE
 40
0.2
  9
$TRACEWID
 40
0.05
  9
$TEXTSTYLE
  7
Standard
  9
$CLAYER
  8
Default
  9
$CELTYPE
  6
ByLayer
  9
$CECOLOR
 62
   256
  9
$CELTSCALE
 40
1.0
  9
$DISPSILH
 70
     0
  9
$DIMSCALE
 40
1.0
  9
$DIMASZ
 40
0.18
  9
$DIMEXO
 40
0.0625
  9
$DIMDLI
 40
0.38
  9
$DIMRND
 40
0.0
  9
$DIMDLE
 40
0.0
  9
$DIMEXE
 40
0.18
  9
$DIMTP
 40
0.0
  9
$DIMTM
 40
0.0
  9
$DIMTXT
 40
0.18
  9
$DIMCEN
 40
0.09
  9
$DIMTSZ
 40
0.0
  9
$DIMTOL
 70
     0
  9
$DIMLIM
 70
     0
  9
$DIMTIH
 70
     1
  9
$DIMTOH
 70
     1
  9
$DIMSE1
 70
     0
  9
$DIMSE2
 70
     0
  9
$DIMTAD
 70
     0
  9
$DIMZIN
 70
     0
  9
$DIMBLK
  1

  9
$DIMASO
 70
     1
  9
$DIMSHO
 70
     1
  9
$DIMPOST
  1

  9
$DIMAPOST
  1

  9
$DIMALT
 70
     0
  9
$DIMALTD
 70
     2
  9
$DIMALTF
 40
25.4
  9
$DIMLFAC
 40
1.0
  9
$DIMTOFL
 70
     0
  9
$DIMTVP
 40
0.0
  9
$DIMTIX
 70
     0
  9
$DIMSOXD
 70
     0
  9
$DIMSAH
 70
     0
  9
$DIMBLK1
  1

  9
$DIMBLK2
  1

  9
$DIMSTYLE
  2
Standard
  9
$DIMCLRD
 70
     0
  9
$DIMCLRE
 70
     0
  9
$DIMCLRT
 70
     0
  9
$DIMTFAC
 40
1.0
  9
$DIMGAP
 40
0.09
  9
$DIMJUST
 70
     0
  9
$DIMSD1
 70
     0
  9
$DIMSD2
 70
     0
  9
$DIMTOLJ
 70
     1
  9
$DIMTZIN
 70
     0
  9
$DIMALTZ
 70
     0
  9
$DIMALTTZ
 70
     0
  9
$DIMUPT
 70
     0
  9
$DIMDEC
 70
     4
  9
$DIMTDEC
 70
     4
  9
$DIMALTU
 70
     2
  9
$DIMALTTD
 70
     2
  9
$DIMTXSTY
  7
Standard
  9
$DIMAUNIT
 70
     0
  9
$DIMADEC
 70
     0
  9
$DIMALTRND
 40
0.0
  9
$DIMAZIN
 70
     0
  9
$DIMDSEP
 70
    46
  9
$DIMATFIT
 70
     3
  9
$DIMFRAC
 70
     0
  9
$DIMLDRBLK
  1

  9
$DIMLUNIT
 70
     2
  9
$DIMLWD
 70
    -2
  9
$DIMLWE
 70
    -2
  9
$DIMTMOVE
 70
     2
  9
$LUNITS
 70
     2
  9
$LUPREC
 70
     2
  9
$SKETCHINC
 40
0.1
  9
$FILLETRAD
 40
0.5
  9
$AUNITS
 70
     0
  9
$AUPREC
 70
     0
  9
$MENU
  1
.
  9
$ELEVATION
 40
0.0
  9
$PELEVATION
 40
0.0
  9
$THICKNESS
 40
0.0
  9
$LIMCHECK
 70
     0
  9
$CHAMFERA
 40
0.0
  9
$CHAMFERB
 40
0.0
  9
$CHAMFERC
 40
0.0
  9
$CHAMFERD
 40
0.0
  9
$SKPOLY
 70
     0
  9
$TDCREATE
 40
2458296.701651458
  9
$TDUCREATE
 40
2458296.868318125
  9
$TDUPDATE
 40
2458296.701683472
  9
$TDUUPDATE
 40
2458296.868350139
  9
$TDINDWG
 40
0.0000000116
  9
$TDUSRTIMER
 40
0.0000000116
  9
$USRTIMER
 70
     1
  9
$ANGBASE
 50
0.0
  9
$ANGDIR
 70
     0
  9
$PDMODE
 70
     0
  9
$PDSIZE
 40
0.0
  9
$PLINEWID
 40
0.0
  9
$SPLFRAME
 70
     0
  9
$SPLINETYPE
 70
     6
  9
$SPLINESEGS
 70
     8
  9
$HANDSEED
  5
362
  9
$SURFTAB1
 70
     6
  9
$SURFTAB2
 70
     6
  9
$SURFTYPE
 70
     6
  9
$SURFU
 70
     6
  9
$SURFV
 70
     6
  9
$UCSBASE
  2

  9
$UCSNAME
  2

  9
$UCSORG
 10
0.0
 20
0.0
 30
0.0
  9
$UCSXDIR
 10
1.0
 20
0.0
 30
0.0
  9
$UCSYDIR
 10
0.0
 20
1.0
 30
0.0
  9
$UCSORTHOREF
  2

  9
$UCSORTHOVIEW
 70
     0
  9
$UCSORGTOP
 10
0.0
 20
0.0
 30
0.0
  9
$UCSORGBOTTOM
 10
0.0
 20
0.0
 30
0.0
  9
$UCSORGLEFT
 10
0.0
 20
0.0
 30
0.0
  9
$UCSORGRIGHT
 10
0.0
 20
0.0
 30
0.0
  9
$UCSORGFRONT
 10
0.0
 20
0.0
 30
0.0
  9
$UCSORGBACK
 10
0.0
 20
0.0
 30
0.0
  9
$PUCSBASE
  2

  9
$PUCSNAME
  2

  9
$PUCSORG
 10
0.0
 20
0.0
 30
0.0
  9
$PUCSXDIR
 10
1.0
 20
0.0
 30
0.0
  9
$PUCSYDIR
 10
0.0
 20
1.0
 30
0.0
  9
$PUCSORTHOREF
  2

  9
$PUCSORTHOVIEW
 70
     0
  9
$PUCSORGTOP
 10
0.0
 20
0.0
 30
0.0
  9
$PUCSORGBOTTOM
 10
0.0
 20
0.0
 30
0.0
  9
$PUCSORGLEFT
 10
0.0
 20
0.0
 30
0.0
  9
$PUCSORGRIGHT
 10
0.0
 20
0.0
 30
0.0
  9
$PUCSORGFRONT
 10
0.0
 20
0.0
 30
0.0
  9
$PUCSORGBACK
 10
0.0
 20
0.0
 30
0.0
  9
$USERI1
 70
     0
  9
$USERI2
 70
     0
  9
$USERI3
 70
     0
  9
$USERI4
 70
     0
  9
$USERI5
 70
     0
  9
$USERR1
 40
0.0
  9
$USERR2
 40
0.0
  9
$USERR3
 40
0.0
  9
$USERR4
 40
0.0
  9
$USERR5
 40
0.0
  9
$WORLDVIEW
 70
     1
  9
$SHADEDGE
 70
     3
  9
$SHADEDIF
 70
    70
  9
$TILEMODE
 70
     1
  9
$MAXACTVP
 70
    64
  9
$PINSBASE
 10
0.0
 20
0.0
 30
0.0
  9
$PLIMCHECK
 70
     0
  9
$PEXTMIN
 10
1.000000000000000E+20
 20
1.000000000000000E+20
 30
1.000000000000000E+20
  9
$PEXTMAX
 10
-1.000000000000000E+20
 20
-1.000000000000000E+20
 30
-1.000000000000000E+20
  9
$PLIMMIN
 10
0.0
 20
0.0
  9
$PLIMMAX
 10
12.0
 20
9.0
  9
$UNITMODE
 70
     0
  9
$VISRETAIN
 70
     1
  9
$PLINEGEN
 70
     0
  9
$PSLTSCALE
 70
     1
  9
$TREEDEPTH
 70
  3020
  9
$CMLSTYLE
  2
Standard
  9
$CMLJUST
 70
     0
  9
$CMLSCALE
 40
1.0
  9
$PROXYGRAPHICS
 70
     1
  9
$MEASUREMENT
 70
     0
  9
$CELWEIGHT
370
    -1
  9
$ENDCAPS
280
     0
  9
$JOINSTYLE
280
     0
  9
$LWDISPLAY
290
     0
  9
$INSUNITS
 70
     4
  9
$HYPERLINKBASE
  1

  9
$STYLESHEET
  1

  9
$XEDIT
290
     1
  9
$CEPSNTYPE
380
     0
  9
$PSTYLEMODE
290
     1
  9
$FINGERPRINTGUID
  2
{DA0D2A9F-9ED8-4E26-9D70-33F47414A413}
  9
$VERSIONGUID
  2
{FAEB1C32-E019-11D5-929B-00C0DF256EC4}
  9
$EXTNAMES
290
     1
  9
$PSVPSCALE
 40
0.0
  9
$OLESTARTUP
290
     0
  9
$SORTENTS
280
   127
  9
$INDEXCTL
280
     0
  9
$HIDETEXT
280
     1
  9
$XCLIPFRAME
290
     0
  9
$HALOGAP
280
     0
  9
$OBSCOLOR
 70
   257
  9
$OBSLTYPE
280
     0
  9
$INTERSECTIONDISPLAY
280
     0
  9
$INTERSECTIONCOLOR
 70
   257
  9
$DIMASSOC
280
     2
  9
$PROJECTNAME
  1

  0
ENDSEC
  0
SECTION
  2
CLASSES
  0
CLASS
  1
ACDBDICTIONARYWDFLT
  2
AcDbDictionaryWithDefault
  3
ObjectDBX Classes
 90
        0
 91
        4
280
     0
281
     0
  0
CLASS
  1
VISUALSTYLE
  2
AcDbVisualStyle
  3
ObjectDBX Classes
 90
     4095
 91
        4
280
     0
281
     0
  0
CLASS
  1
MATERIAL
  2
AcDbMaterial
  3
ObjectDBX Classes
 90
     1153
 91
        4
280
     0
281
     0
  0
CLASS
  1
SCALE
  2
AcDbScale
  3
ObjectDBX Classes
 90
     1153
 91
        4
280
     0
281
     0
  0
CLASS
  1
TABLESTYLE
  2
AcDbTableStyle
  3
ObjectDBX Classes
 90
     4095
 91
        4
280
     0
281
     0
  0
CLASS
  1
MLEADERSTYLE
  2
AcDbMLeaderStyle
  3
ACDB_MLEADERSTYLE_CLASS
 90
     4095
 91
        4
280
     0
281
     0
  0
CLASS
  1
SUN
  2
AcDbSun
  3
SCENEOE
 90
     1153
 91
        4
280
     0
281
     0
  0
CLASS
  1
DICTIONARYVAR
  2
AcDbDictionaryVar
  3
ObjectDBX Classes
 90
        0
 91
        4
280
     0
281
     0
  0
CLASS
  1
CELLSTYLEMAP
  2
AcDbCellStyleMap
  3
ObjectDBX Classes
 90
     1152
 91
        4
280
     0
281
     0
  0
ENDSEC
  0
SECTION
  2
TABLES
  0
TABLE
  2
VPORT
  5
8
102
{ACAD_XDICTIONARY
360
31B
102
}
330
0
100
AcDbSymbolTable
 70
     1
  0
VPORT
  5
29
330
8
100
AcDbSymbolTableRecord
100
AcDbViewportTableRecord
  2
*Active
 70
     0
 10
0.0
 20
0.0
 11
1.0
 21
1.0
 12
-49.2343635377898
 22
-29.20956700617585
 13
0.0
 23
0.0
 14
0.5
 24
0.5
 15
0.5
 25
0.5
 16
0.0
 26
0.0
 36
1.0
 17
0.0
 27
0.0
 37
0.0
 40
42.74007068257162
 41
0.9003765534584505
 42
50.0
 43
0.0
 44
0.0
 50
0.0
 51
0.0
 71
     0
 72
   100
 73
     1
 74
     3
 75
     0
 76
     0
 77
     0
 78
     0
281
     0
 65
     1
110
0.0
120
0.0
130
0.0
111
1.0
121
0.0
131
0.0
112
0.0
122
1.0
132
0.0
 79
     0
146
0.0
  0
ENDTAB
  0
TABLE
  2
LTYPE
  5
5
330
0
100
AcDbSymbolTable
 70
     1
  0
LTYPE
  5
14
330
5
100
AcDbSymbolTableRecord
100
AcDbLinetypeTableRecord
  2
ByBlock
 70
     0
  3

 72
    65
 73
     0
 40
0.0
  0
LTYPE
  5
15
330
5
100
AcDbSymbolTableRecord
100
AcDbLinetypeTableRecord
  2
ByLayer
 70
     0
  3

 72
    65
 73
     0
 40
0.0
  0
LTYPE
  5
16
330
5
100
AcDbSymbolTableRecord
100
AcDbLinetypeTableRecord
  2
Continuous
 70
     0
  3
Solid line
 72
    65
 73
     0
 40
0.0
  0
ENDTAB
  0
TABLE
  2
LAYER
  5
2
330
0
100
AcDbSymbolTable
 70
     2
  0
LAYER
  5
10
330
2
100
AcDbSymbolTableRecord
100
AcDbLayerTableRecord
  2
0
 70
     0
 62
     7
  6
Continuous
370
    -3
390
F
  0
LAYER
  5
6E
330
2
100
AcDbSymbolTableRecord
100
AcDbLayerTableRecord
  2
Default
 70
     0
 62
    18
420
        0
  6
Continuous
370
    -3
390
F
  0
ENDTAB
  0
TABLE
  2
STYLE
  5
3
330
0
100
AcDbSymbolTable
 70
     1
  0
STYLE
  5
11
330
3
100
AcDbSymbolTableRecord
100
AcDbTextStyleTableRecord
  2
Standard
 70
     0
 40
0.0
 41
1.0
 50
0.0
 71
     0
 42
0.2
  3
txt
  4

  0
ENDTAB
  0
TABLE
  2
VIEW
  5
6
330
0
100
AcDbSymbolTable
 70
     0
  0
ENDTAB
  0
TABLE
  2
UCS
  5
7
330
0
100
AcDbSymbolTable
 70
     0
  0
ENDTAB
  0
TABLE
  2
APPID
  5
9
330
0
100
AcDbSymbolTable
 70
     2
  0
APPID
  5
12
330
9
100
AcDbSymbolTableRecord
100
AcDbRegAppTableRecord
  2
ACAD
 70
     0
  0
APPID
  5
35A
330
9
100
AcDbSymbolTableRecord
100
AcDbRegAppTableRecord
  2
ACAD_MLEADERVER
 70
     0
  0
ENDTAB
  0
TABLE
  2
DIMSTYLE
  5
A
330
0
100
AcDbSymbolTable
 70
     1
100
AcDbDimStyleTable
  0
DIMSTYLE
105
27
330
A
100
AcDbSymbolTableRecord
100
AcDbDimStyleTableRecord
  2
Standard
 70
     0
178
     0
340
11
  0
ENDTAB
  0
TABLE
  2
BLOCK_RECORD
  5
1
330
0
100
AcDbSymbolTable
 70
     1
  0
BLOCK_RECORD
  5
1F
330
1
100
AcDbSymbolTableRecord
100
AcDbBlockTableRecord
  2
*Model_Space
340
22
  0
BLOCK_RECORD
  5
1B
330
1
100
AcDbSymbolTableRecord
100
AcDbBlockTableRecord
  2
*Paper_Space
340
1E
  0
BLOCK_RECORD
  5
23
330
1
100
AcDbSymbolTableRecord
100
AcDbBlockTableRecord
  2
*Paper_Space0
340
26
  0
ENDTAB
  0
ENDSEC
  0
SECTION
  2
BLOCKS
  0
BLOCK
  5
20
330
1F
100
AcDbEntity
  8
0
100
AcDbBlockBegin
  2
*Model_Space
 70
     0
 10
0.0
 20
0.0
 30
0.0
  3
*Model_Space
  1

  0
ENDBLK
  5
21
330
1F
100
AcDbEntity
  8
0
100
AcDbBlockEnd
  0
BLOCK
  5
1C
330
1B
100
AcDbEntity
 67
     1
  8
0
100
AcDbBlockBegin
  2
*Paper_Space
 70
     0
 10
0.0
 20
0.0
 30
0.0
  3
*Paper_Space
  1

  0
ENDBLK
  5
1D
330
1B
100
AcDbEntity
 67
     1
  8
0
100
AcDbBlockEnd
  0
BLOCK
  5
24
330
23
100
AcDbEntity
  8
0
100
AcDbBlockBegin
  2
*Paper_Space0
 70
     0
 10
0.0
 20
0.0
 30
0.0
  3
*Paper_Space0
  1

  0
ENDBLK
  5
25
330
23
100
AcDbEntity
  8
0
100
AcDbBlockEnd
  0
ENDSEC
  0
SECTION
  2
ENTITIES
  0
POLYLINE
  5
6F
330
1F
100
AcDbEntity
  8
Default
100
AcDb2dPolyline
 66
     1
 10
0.0
 20
0.0
 30
0.0
  0
VERTEX
  5
70
330
6F
100
AcDbEntity
  8
Default
100
AcDbVertex
100
AcDb2dVertex
 10
-66.62025783183626
 20
-8.258551965699564
 30
0.0
  0
VERTEX
  5
71
330
6F
100
AcDbEntity
  8
Default
100
AcDbVertex
100
AcDb2dVertex
 10
-56.62025783183627
 20
-8.258551965699565
 30
0.0
  0
SEQEND
  5
72
330
6F
100
AcDbEntity
  8
Default
  0
POLYLINE
  5
73
330
1F
100
AcDbEntity
  8
Default
100
AcDb2dPolyline
 66
     1
 10
0.0
 20
0.0
 30
0.0
  0
VERTEX
  5
74
330
73
100
AcDbEntity
  8
Default
100
AcDbVertex
100
AcDb2dVertex
 10
-56.62025783183627
 20
-8.258551965699565
 30
0.0
  0
VERTEX
  5
75
330
73
100
AcDbEntity
  8
Default
100
AcDbVertex
100
AcDb2dVertex
 10
-56.62025783183627
 20
-28.25855196569957
 30
0.0
  0
SEQEND
  5
76
330
73
100
AcDbEntity
  8
Default
  0
POLYLINE
  5
77
330
1F
100
AcDbEntity
  8
Default
100
AcDb2dPolyline
 66
     1
 10
0.0
 20
0.0
 30
0.0
  0
VERTEX
  5
78
330
77
100
AcDbEntity
  8
Default
100
AcDbVertex
100
AcDb2dVertex
 10
-66.62025783183626
 20
-8.258551965699564
 30
0.0
  0
VERTEX
  5
79
330
77
100
AcDbEntity
  8
Default
100
AcDbVertex
100
AcDb2dVertex
 10
-66.62025783183626
 20
-28.25855196569957
 30
0.0
  0
SEQEND
  5
7A
330
77
100
AcDbEntity
  8
Default
  0
POLYLINE
  5
7B
330
1F
100
AcDbEntity
  8
Default
100
AcDb2dPolyline
 66
     1
 10
0.0
 20
0.0
 30
0.0
  0
VERTEX
  5
7C
330
7B
100
AcDbEntity
  8
Default
100
AcDbVertex
100
AcDb2dVertex
 10
-66.62025783183626
 20
-28.25855196569957
 30
0.0
  0
VERTEX
  5
7D
330
7B
100
AcDbEntity
  8
Default
100
AcDbVertex
100
AcDb2dVertex
 10
-56.62025783183627
 20
-28.25855196569957
 30
0.0
  0
SEQEND
  5
7E
330
7B
100
AcDbEntity
  8
Default
  0
POLYLINE
  5
7F
330
1F
100
AcDbEntity
  8
Default
100
AcDb2dPolyline
 66
     1
 10
0.0
 20
0.0
 30
0.0
  0
VERTEX
  5
80
330
7F
100
AcDbEntity
  8
Default
100
AcDbVertex
100
AcDb2dVertex
 10
-66.62025783183626
 20
-8.258551965699564
 30
0.0
  0
VERTEX
  5
81
330
7F
100
AcDbEntity
  8
Default
100
AcDbVertex
100
AcDb2dVertex
 10
-66.62025783183626
 20
-18.25855196569957
 30
0.0
  0
SEQEND
  5
82
330
7F
100
AcDbEntity
  8
Default
  0
POLYLINE
  5
83
330
1F
100
AcDbEntity
  8
Default
100
AcDb2dPolyline
 66
     1
 10
0.0
 20
0.0
 30
0.0
  0
VERTEX
  5
84
330
83
100
AcDbEntity
  8
Default
100
AcDbVertex
100
AcDb2dVertex
 10
-56.62025783183627
 20
-18.25855196569957
 30
0.0
  0
VERTEX
  5
85
330
83
100
AcDbEntity
  8
Default
100
AcDbVertex
100
AcDb2dVertex
 10
-56.62025783183627
 20
-28.25855196569957
 30
0.0
  0
SEQEND
  5
86
330
83
100
AcDbEntity
  8
Default
  0
LINE
  5
87
330
1F
100
AcDbEntity
  8
Default
100
AcDbLine
 10
-58.62025783183626
 20
-9.93855196569957
 30
0.0
 11
-58.62025783183626
 21
-9.378551965699572
 31
0.0
  0
LINE
  5
88
330
1F
100
AcDbEntity
  8
Default
100
AcDbLine
 10
-58.62025783183626
 20
-9.378551965699572
 30
0.0
 11
-64.62025783183626
 21
-9.378551965699572
 31
0.0
  0
LINE
  5
89
330
1F
100
AcDbEntity
  8
Default
100
AcDbLine
 10
-64.62025783183626
 20
-9.378551965699572
 30
0.0
 11
-64.62025783183626
 21
-9.93855196569957
 31
0.0
  0
LINE
  5
8A
330
1F
100
AcDbEntity
  8
Default
100
AcDbLine
 10
-64.62025783183626
 20
-9.93855196569957
 30
0.0
 11
-58.62025783183626
 21
-9.93855196569957
 31
0.0
  0
LINE
  5
8B
330
1F
100
AcDbEntity
  8
Default
100
AcDbLine
 10
-58.62025783183626
 20
-27.13855196569957
 30
0.0
 11
-58.62025783183626
 21
-26.57855196569957
 31
0.0
  0
LINE
  5
8C
330
1F
100
AcDbEntity
  8
Default
100
AcDbLine
 10
-58.62025783183626
 20
-26.57855196569957
 30
0.0
 11
-64.62025783183626
 21
-26.57855196569957
 31
0.0
  0
LINE
  5
8D
330
1F
100
AcDbEntity
  8
Default
100
AcDbLine
 10
-64.62025783183626
 20
-26.57855196569957
 30
0.0
 11
-64.62025783183626
 21
-27.13855196569957
 31
0.0
  0
LINE
  5
8E
330
1F
100
AcDbEntity
  8
Default
100
AcDbLine
 10
-64.62025783183626
 20
-27.13855196569957
 30
0.0
 11
-58.62025783183626
 21
-27.13855196569957
 31
0.0
  0
POLYLINE
  5
8F
330
1F
100
AcDbEntity
  8
Default
100
AcDb2dPolyline
 66
     1
 10
0.0
 20
0.0
 30
0.0
  0
VERTEX
  5
90
330
8F
100
AcDbEntity
  8
Default
100
AcDbVertex
100
AcDb2dVertex
 10
-43.00984940846705
 20
-25.24726965264614
 30
0.0
  0
VERTEX
  5
91
330
8F
100
AcDbEntity
  8
Default
100
AcDbVertex
100
AcDb2dVertex
 10
-43.00984940846705
 20
-25.84726965264614
 30
0.0
  0
VERTEX
  5
92
330
8F
100
AcDbEntity
  8
Default
100
AcDbVertex
100
AcDb2dVertex
 10
-37.00984940846705
 20
-25.84726965264614
 30
0.0
  0
VERTEX
  5
93
330
8F
100
AcDbEntity
  8
Default
100
AcDbVertex
100
AcDb2dVertex
 10
-37.00984940846705
 20
-25.24726965264614
 30
0.0
  0
SEQEND
  5
94
330
8F
100
AcDbEntity
  8
Default
  0
POLYLINE
  5
95
330
1F
100
AcDbEntity
  8
Default
100
AcDb2dPolyline
 66
     1
 10
0.0
 20
0.0
 30
0.0
  0
VERTEX
  5
96
330
95
100
AcDbEntity
  8
Default
100
AcDbVertex
100
AcDb2dVertex
 10
-37.00984940846705
 20
-25.24726965264614
 30
0.0
  0
VERTEX
  5
97
330
95
100
AcDbEntity
  8
Default
100
AcDbVertex
100
AcDb2dVertex
 10
-35.00984940846705
 20
-25.24726965264614
 30
0.0
  0
SEQEND
  5
98
330
95
100
AcDbEntity
  8
Default
  0
POLYLINE
  5
99
330
1F
100
AcDbEntity
  8
Default
100
AcDb2dPolyline
 66
     1
 10
0.0
 20
0.0
 30
0.0
  0
VERTEX
  5
9A
330
99
100
AcDbEntity
  8
Default
100
AcDbVertex
100
AcDb2dVertex
 10
-35.00984940846705
 20
-25.24726965264614
 30
0.0
  0
VERTEX
  5
9B
330
99
100
AcDbEntity
  8
Default
100
AcDbVertex
100
AcDb2dVertex
 10
-35.00984940846705
 20
-15.24726965264614
 30
0.0
  0
SEQEND
  5
9C
330
99
100
AcDbEntity
  8
Default
  0
ARC
  5
9D
330
1F
100
AcDbEntity
  8
Default
100
AcDbCircle
 10
-40.00984940846705
 20
-15.24726965264614
 30
0.0
 40
5.0
100
AcDbArc
 50
0.0
 51
180.0
  0
LINE
  5
9E
330
1F
100
AcDbEntity
  8
Default
100
AcDbLine
 10
-45.00984940846705
 20
-15.24726965264614
 30
0.0
 11
-45.00984940846705
 21
-25.24726965264614
 31
0.0
  0
POLYLINE
  5
9F
330
1F
100
AcDbEntity
  8
Default
100
AcDb2dPolyline
 66
     1
 10
0.0
 20
0.0
 30
0.0
  0
VERTEX
  5
A0
330
9F
100
AcDbEntity
  8
Default
100
AcDbVertex
100
AcDb2dVertex
 10
-45.00984940846705
 20
-25.24726965264614
 30
0.0
  0
VERTEX
  5
A1
330
9F
100
AcDbEntity
  8
Default
100
AcDbVertex
100
AcDb2dVertex
 10
-43.00984940846705
 20
-25.24726965264614
 30
0.0
  0
SEQEND
  5
A2
330
9F
100
AcDbEntity
  8
Default
  0
POLYLINE
  5
A3
330
1F
100
AcDbEntity
  8
Default
100
AcDb2dPolyline
 66
     1
 10
0.0
 20
0.0
 30
0.0
  0
VERTEX
  5
A4
330
A3
100
AcDbEntity
  8
Default
100
AcDbVertex
100
AcDb2dVertex
 10
-53.29097624048565
 20
-25.34679833201417
 30
0.0
  0
VERTEX
  5
A5
330
A3
100
AcDbEntity
  8
Default
100
AcDbVertex
100
AcDb2dVertex
 10
-53.29097624048565
 20
-25.94679833201417
 30
0.0
  0
VERTEX
  5
A6
330
A3
100
AcDbEntity
  8
Default
100
AcDbVertex
100
AcDb2dVertex
 10
-47.29097624048565
 20
-25.94679833201417
 30
0.0
  0
VERTEX
  5
A7
330
A3
100
AcDbEntity
  8
Default
100
AcDbVertex
100
AcDb2dVertex
 10
-47.29097624048565
 20
-25.34679833201417
 30
0.0
  0
SEQEND
  5
A8
330
A3
100
AcDbEntity
  8
Default
  0
POLYLINE
  5
A9
330
1F
100
AcDbEntity
  8
Default
100
AcDb2dPolyline
 66
     1
 10
0.0
 20
0.0
 30
0.0
  0
VERTEX
  5
AA
330
A9
100
AcDbEntity
  8
Default
100
AcDbVertex
100
AcDb2dVertex
 10
-47.29097624048565
 20
-25.34679833201417
 30
0.0
  0
VERTEX
  5
AB
330
A9
100
AcDbEntity
  8
Default
100
AcDbVertex
100
AcDb2dVertex
 10
-45.29097624048565
 20
-25.34679833201417
 30
0.0
  0
SEQEND
  5
AC
330
A9
100
AcDbEntity
  8
Default
  0
POLYLINE
  5
AD
330
1F
100
AcDbEntity
  8
Default
100
AcDb2dPolyline
 66
     1
 10
0.0
 20
0.0
 30
0.0
  0
VERTEX
  5
AE
330
AD
100
AcDbEntity
  8
Default
100
AcDbVertex
100
AcDb2dVertex
 10
-45.29097624048565
 20
-25.34679833201417
 30
0.0
  0
VERTEX
  5
AF
330
AD
100
AcDbEntity
  8
Default
100
AcDbVertex
100
AcDb2dVertex
 10
-45.29097624048565
 20
-15.34679833201417
 30
0.0
  0
SEQEND
  5
B0
330
AD
100
AcDbEntity
  8
Default
  0
ARC
  5
B1
330
1F
100
AcDbEntity
  8
Default
100
AcDbCircle
 10
-50.29097624048565
 20
-15.34679833201417
 30
0.0
 40
5.0
100
AcDbArc
 50
0.0
 51
180.0
  0
LINE
  5
B2
330
1F
100
AcDbEntity
  8
Default
100
AcDbLine
 10
-55.29097624048565
 20
-15.34679833201417
 30
0.0
 11
-55.29097624048565
 21
-25.34679833201417
 31
0.0
  0
POLYLINE
  5
B3
330
1F
100
AcDbEntity
  8
Default
100
AcDb2dPolyline
 66
     1
 10
0.0
 20
0.0
 30
0.0
  0
VERTEX
  5
B4
330
B3
100
AcDbEntity
  8
Default
100
AcDbVertex
100
AcDb2dVertex
 10
-55.29097624048565
 20
-25.34679833201417
 30
0.0
  0
VERTEX
  5
B5
330
B3
100
AcDbEntity
  8
Default
100
AcDbVertex
100
AcDb2dVertex
 10
-53.29097624048565
 20
-25.34679833201417
 30
0.0
  0
SEQEND
  5
B6
330
B3
100
AcDbEntity
  8
Default
  0
LINE
  5
B7
330
1F
100
AcDbEntity
  8
Default
100
AcDbLine
 10
-36.38960003372529
 20
-40.28329202232599
 30
0.0
 11
-36.38960003372529
 21
-32.87533136569308
 31
0.0
  0
LINE
  5
B8
330
1F
100
AcDbEntity
  8
Default
100
AcDbLine
 10
-36.38960003372529
 20
-32.87533136569308
 30
0.0
 11
-36.3275511548002
 21
-32.87533136569308
 31
0.0
  0
LINE
  5
B9
330
1F
100
AcDbEntity
  8
Default
100
AcDbLine
 10
-36.3275511548002
 20
-32.87533136569308
 30
0.0
 11
-36.26550227587509
 21
-32.87533136569308
 31
0.0
  0
LINE
  5
BA
330
1F
100
AcDbEntity
  8
Default
100
AcDbLine
 10
-36.26550227587509
 20
-32.87533136569308
 30
0.0
 11
-36.26550227587509
 21
-40.28329202232599
 31
0.0
  0
LINE
  5
BB
330
1F
100
AcDbEntity
  8
Default
100
AcDbLine
 10
-36.26550227587509
 20
-40.28329202232599
 30
0.0
 11
-36.26550227587509
 21
-47.69125267895892
 31
0.0
  0
LINE
  5
BC
330
1F
100
AcDbEntity
  8
Default
100
AcDbLine
 10
-36.26550227587509
 20
-47.69125267895892
 30
0.0
 11
-36.3275511548002
 21
-47.69125267895892
 31
0.0
  0
LINE
  5
BD
330
1F
100
AcDbEntity
  8
Default
100
AcDbLine
 10
-36.3275511548002
 20
-47.69125267895892
 30
0.0
 11
-36.38960003372529
 21
-47.69125267895892
 31
0.0
  0
LINE
  5
BE
330
1F
100
AcDbEntity
  8
Default
100
AcDbLine
 10
-36.38960003372529
 20
-47.69125267895892
 30
0.0
 11
-36.38960003372529
 21
-40.28329202232599
 31
0.0
  0
LINE
  5
BF
330
1F
100
AcDbEntity
  8
Default
100
AcDbLine
 10
-39.24399744118038
 20
-47.69125267895892
 30
0.0
 11
-39.24399744118038
 21
-40.28329202232599
 31
0.0
  0
LINE
  5
C0
330
1F
100
AcDbEntity
  8
Default
100
AcDbLine
 10
-39.24399744118038
 20
-40.28329202232599
 30
0.0
 11
-39.24399744118038
 21
-32.87533136569308
 31
0.0
  0
LINE
  5
C1
330
1F
100
AcDbEntity
  8
Default
100
AcDbLine
 10
-39.24399744118038
 20
-32.87533136569308
 30
0.0
 11
-39.3680951990306
 21
-32.87533136569308
 31
0.0
  0
LINE
  5
C2
330
1F
100
AcDbEntity
  8
Default
100
AcDbLine
 10
-39.3680951990306
 20
-32.87533136569308
 30
0.0
 11
-39.3680951990306
 21
-40.28329202232599
 31
0.0
  0
LINE
  5
C3
330
1F
100
AcDbEntity
  8
Default
100
AcDbLine
 10
-39.3680951990306
 20
-40.28329202232599
 30
0.0
 11
-39.3680951990306
 21
-47.69125267895892
 31
0.0
  0
LINE
  5
C4
330
1F
100
AcDbEntity
  8
Default
100
AcDbLine
 10
-39.3680951990306
 20
-47.69125267895892
 30
0.0
 11
-39.24399744118038
 21
-47.69125267895892
 31
0.0
  0
LINE
  5
C5
330
1F
100
AcDbEntity
  8
Default
100
AcDbLine
 10
-67.04328565069646
 20
-47.69125267895892
 30
0.0
 11
-67.04328565069646
 21
-40.28329202232599
 31
0.0
  0
LINE
  5
C6
330
1F
100
AcDbEntity
  8
Default
100
AcDbLine
 10
-67.04328565069646
 20
-40.28329202232599
 30
0.0
 11
-67.04328565069646
 21
-32.87533136569308
 31
0.0
  0
LINE
  5
C7
330
1F
100
AcDbEntity
  8
Default
100
AcDbLine
 10
-67.04328565069646
 20
-32.87533136569308
 30
0.0
 11
-67.16738340854667
 21
-32.87533136569308
 31
0.0
  0
LINE
  5
C8
330
1F
100
AcDbEntity
  8
Default
100
AcDbLine
 10
-67.16738340854667
 20
-32.87533136569308
 30
0.0
 11
-67.16738340854667
 21
-40.28329202232599
 31
0.0
  0
LINE
  5
C9
330
1F
100
AcDbEntity
  8
Default
100
AcDbLine
 10
-67.16738340854667
 20
-40.28329202232599
 30
0.0
 11
-67.16738340854667
 21
-47.69125267895892
 31
0.0
  0
LINE
  5
CA
330
1F
100
AcDbEntity
  8
Default
100
AcDbLine
 10
-67.16738340854667
 20
-47.69125267895892
 30
0.0
 11
-67.04328565069646
 21
-47.69125267895892
 31
0.0
  0
LINE
  5
CB
330
1F
100
AcDbEntity
  8
Default
100
AcDbLine
 10
-63.07195876362272
 20
-47.69125267895892
 30
0.0
 11
-63.07195876362272
 21
-40.28329202232599
 31
0.0
  0
LINE
  5
CC
330
1F
100
AcDbEntity
  8
Default
100
AcDbLine
 10
-63.07195876362272
 20
-40.28329202232599
 30
0.0
 11
-63.07195876362272
 21
-32.87533136569308
 31
0.0
  0
LINE
  5
CD
330
1F
100
AcDbEntity
  8
Default
100
AcDbLine
 10
-63.07195876362272
 20
-32.87533136569308
 30
0.0
 11
-63.19605652147294
 21
-32.87533136569308
 31
0.0
  0
LINE
  5
CE
330
1F
100
AcDbEntity
  8
Default
100
AcDbLine
 10
-63.19605652147294
 20
-32.87533136569308
 30
0.0
 11
-63.19605652147294
 21
-40.28329202232599
 31
0.0
  0
LINE
  5
CF
330
1F
100
AcDbEntity
  8
Default
100
AcDbLine
 10
-63.19605652147294
 20
-40.28329202232599
 30
0.0
 11
-63.19605652147294
 21
-47.69125267895892
 31
0.0
  0
LINE
  5
D0
330
1F
100
AcDbEntity
  8
Default
100
AcDbLine
 10
-63.19605652147294
 20
-47.69125267895892
 30
0.0
 11
-63.07195876362272
 21
-47.69125267895892
 31
0.0
  0
LINE
  5
D1
330
1F
100
AcDbEntity
  8
Default
100
AcDbLine
 10
-61.08629532008586
 20
-47.69125267895892
 30
0.0
 11
-61.08629532008586
 21
-40.28329202232599
 31
0.0
  0
LINE
  5
D2
330
1F
100
AcDbEntity
  8
Default
100
AcDbLine
 10
-61.08629532008586
 20
-40.28329202232599
 30
0.0
 11
-61.08629532008586
 21
-32.87533136569308
 31
0.0
  0
LINE
  5
D3
330
1F
100
AcDbEntity
  8
Default
100
AcDbLine
 10
-61.08629532008586
 20
-32.87533136569308
 30
0.0
 11
-61.21039307793608
 21
-32.87533136569308
 31
0.0
  0
LINE
  5
D4
330
1F
100
AcDbEntity
  8
Default
100
AcDbLine
 10
-61.21039307793608
 20
-32.87533136569308
 30
0.0
 11
-61.21039307793608
 21
-40.28329202232599
 31
0.0
  0
LINE
  5
D5
330
1F
100
AcDbEntity
  8
Default
100
AcDbLine
 10
-61.21039307793608
 20
-40.28329202232599
 30
0.0
 11
-61.21039307793608
 21
-47.69125267895892
 31
0.0
  0
LINE
  5
D6
330
1F
100
AcDbEntity
  8
Default
100
AcDbLine
 10
-61.21039307793608
 20
-47.69125267895892
 30
0.0
 11
-61.08629532008586
 21
-47.69125267895892
 31
0.0
  0
LINE
  5
D7
330
1F
100
AcDbEntity
  8
Default
100
AcDbLine
 10
-59.100631876549
 20
-47.69125267895892
 30
0.0
 11
-59.100631876549
 21
-40.28329202232599
 31
0.0
  0
LINE
  5
D8
330
1F
100
AcDbEntity
  8
Default
100
AcDbLine
 10
-59.100631876549
 20
-40.28329202232599
 30
0.0
 11
-59.100631876549
 21
-32.87533136569308
 31
0.0
  0
LINE
  5
D9
330
1F
100
AcDbEntity
  8
Default
100
AcDbLine
 10
-59.100631876549
 20
-32.87533136569308
 30
0.0
 11
-59.22472963439922
 21
-32.87533136569308
 31
0.0
  0
LINE
  5
DA
330
1F
100
AcDbEntity
  8
Default
100
AcDbLine
 10
-59.22472963439922
 20
-32.87533136569308
 30
0.0
 11
-59.22472963439922
 21
-40.28329202232599
 31
0.0
  0
LINE
  5
DB
330
1F
100
AcDbEntity
  8
Default
100
AcDbLine
 10
-59.22472963439922
 20
-40.28329202232599
 30
0.0
 11
-59.22472963439922
 21
-47.69125267895892
 31
0.0
  0
LINE
  5
DC
330
1F
100
AcDbEntity
  8
Default
100
AcDbLine
 10
-59.22472963439922
 20
-47.69125267895892
 30
0.0
 11
-59.100631876549
 21
-47.69125267895892
 31
0.0
  0
LINE
  5
DD
330
1F
100
AcDbEntity
  8
Default
100
AcDbLine
 10
-57.11496843301214
 20
-47.69125267895892
 30
0.0
 11
-57.11496843301214
 21
-40.28329202232599
 31
0.0
  0
LINE
  5
DE
330
1F
100
AcDbEntity
  8
Default
100
AcDbLine
 10
-57.11496843301214
 20
-40.28329202232599
 30
0.0
 11
-57.11496843301214
 21
-32.87533136569308
 31
0.0
  0
LINE
  5
DF
330
1F
100
AcDbEntity
  8
Default
100
AcDbLine
 10
-57.11496843301214
 20
-32.87533136569308
 30
0.0
 11
-57.23906619086235
 21
-32.87533136569308
 31
0.0
  0
LINE
  5
E0
330
1F
100
AcDbEntity
  8
Default
100
AcDbLine
 10
-57.23906619086235
 20
-32.87533136569308
 30
0.0
 11
-57.23906619086235
 21
-40.28329202232599
 31
0.0
  0
LINE
  5
E1
330
1F
100
AcDbEntity
  8
Default
100
AcDbLine
 10
-57.23906619086235
 20
-40.28329202232599
 30
0.0
 11
-57.23906619086235
 21
-47.69125267895892
 31
0.0
  0
LINE
  5
E2
330
1F
100
AcDbEntity
  8
Default
100
AcDbLine
 10
-57.23906619086235
 20
-47.69125267895892
 30
0.0
 11
-57.11496843301214
 21
-47.69125267895892
 31
0.0
  0
LINE
  5
E3
330
1F
100
AcDbEntity
  8
Default
100
AcDbLine
 10
-55.12930498947528
 20
-47.69125267895892
 30
0.0
 11
-55.12930498947528
 21
-40.28329202232599
 31
0.0
  0
LINE
  5
E4
330
1F
100
AcDbEntity
  8
Default
100
AcDbLine
 10
-55.12930498947528
 20
-40.28329202232599
 30
0.0
 11
-55.12930498947528
 21
-32.87533136569308
 31
0.0
  0
LINE
  5
E5
330
1F
100
AcDbEntity
  8
Default
100
AcDbLine
 10
-55.12930498947528
 20
-32.87533136569308
 30
0.0
 11
-55.2534027473255
 21
-32.87533136569308
 31
0.0
  0
LINE
  5
E6
330
1F
100
AcDbEntity
  8
Default
100
AcDbLine
 10
-55.2534027473255
 20
-32.87533136569308
 30
0.0
 11
-55.2534027473255
 21
-40.28329202232599
 31
0.0
  0
LINE
  5
E7
330
1F
100
AcDbEntity
  8
Default
100
AcDbLine
 10
-55.2534027473255
 20
-40.28329202232599
 30
0.0
 11
-55.2534027473255
 21
-47.69125267895892
 31
0.0
  0
LINE
  5
E8
330
1F
100
AcDbEntity
  8
Default
100
AcDbLine
 10
-55.2534027473255
 20
-47.69125267895892
 30
0.0
 11
-55.12930498947528
 21
-47.69125267895892
 31
0.0
  0
LINE
  5
E9
330
1F
100
AcDbEntity
  8
Default
100
AcDbLine
 10
-53.14364154593842
 20
-47.69125267895892
 30
0.0
 11
-53.14364154593842
 21
-40.28329202232599
 31
0.0
  0
LINE
  5
EA
330
1F
100
AcDbEntity
  8
Default
100
AcDbLine
 10
-53.14364154593842
 20
-40.28329202232599
 30
0.0
 11
-53.14364154593842
 21
-32.87533136569308
 31
0.0
  0
LINE
  5
EB
330
1F
100
AcDbEntity
  8
Default
100
AcDbLine
 10
-53.14364154593842
 20
-32.87533136569308
 30
0.0
 11
-53.26773930378863
 21
-32.87533136569308
 31
0.0
  0
LINE
  5
EC
330
1F
100
AcDbEntity
  8
Default
100
AcDbLine
 10
-53.26773930378863
 20
-32.87533136569308
 30
0.0
 11
-53.26773930378863
 21
-40.28329202232599
 31
0.0
  0
LINE
  5
ED
330
1F
100
AcDbEntity
  8
Default
100
AcDbLine
 10
-53.26773930378863
 20
-40.28329202232599
 30
0.0
 11
-53.26773930378863
 21
-47.69125267895892
 31
0.0
  0
LINE
  5
EE
330
1F
100
AcDbEntity
  8
Default
100
AcDbLine
 10
-53.26773930378863
 20
-47.69125267895892
 30
0.0
 11
-53.14364154593842
 21
-47.69125267895892
 31
0.0
  0
LINE
  5
EF
330
1F
100
AcDbEntity
  8
Default
100
AcDbLine
 10
-51.15797810240156
 20
-47.69125267895892
 30
0.0
 11
-51.15797810240156
 21
-40.28329202232599
 31
0.0
  0
LINE
  5
F0
330
1F
100
AcDbEntity
  8
Default
100
AcDbLine
 10
-51.15797810240156
 20
-40.28329202232599
 30
0.0
 11
-51.15797810240156
 21
-32.87533136569308
 31
0.0
  0
LINE
  5
F1
330
1F
100
AcDbEntity
  8
Default
100
AcDbLine
 10
-51.15797810240156
 20
-32.87533136569308
 30
0.0
 11
-51.28207586025177
 21
-32.87533136569308
 31
0.0
  0
LINE
  5
F2
330
1F
100
AcDbEntity
  8
Default
100
AcDbLine
 10
-51.28207586025177
 20
-32.87533136569308
 30
0.0
 11
-51.28207586025177
 21
-40.28329202232599
 31
0.0
  0
LINE
  5
F3
330
1F
100
AcDbEntity
  8
Default
100
AcDbLine
 10
-51.28207586025177
 20
-40.28329202232599
 30
0.0
 11
-51.28207586025177
 21
-47.69125267895892
 31
0.0
  0
LINE
  5
F4
330
1F
100
AcDbEntity
  8
Default
100
AcDbLine
 10
-51.28207586025177
 20
-47.69125267895892
 30
0.0
 11
-51.15797810240156
 21
-47.69125267895892
 31
0.0
  0
LINE
  5
F5
330
1F
100
AcDbEntity
  8
Default
100
AcDbLine
 10
-49.17231465886469
 20
-47.69125267895892
 30
0.0
 11
-49.17231465886469
 21
-40.28329202232599
 31
0.0
  0
LINE
  5
F6
330
1F
100
AcDbEntity
  8
Default
100
AcDbLine
 10
-49.17231465886469
 20
-40.28329202232599
 30
0.0
 11
-49.17231465886469
 21
-32.87533136569308
 31
0.0
  0
LINE
  5
F7
330
1F
100
AcDbEntity
  8
Default
100
AcDbLine
 10
-49.17231465886469
 20
-32.87533136569308
 30
0.0
 11
-49.29641241671491
 21
-32.87533136569308
 31
0.0
  0
LINE
  5
F8
330
1F
100
AcDbEntity
  8
Default
100
AcDbLine
 10
-49.29641241671491
 20
-32.87533136569308
 30
0.0
 11
-49.29641241671491
 21
-40.28329202232599
 31
0.0
  0
LINE
  5
F9
330
1F
100
AcDbEntity
  8
Default
100
AcDbLine
 10
-49.29641241671491
 20
-40.28329202232599
 30
0.0
 11
-49.29641241671491
 21
-47.69125267895892
 31
0.0
  0
LINE
  5
FA
330
1F
100
AcDbEntity
  8
Default
100
AcDbLine
 10
-49.29641241671491
 20
-47.69125267895892
 30
0.0
 11
-49.17231465886469
 21
-47.69125267895892
 31
0.0
  0
LINE
  5
FB
330
1F
100
AcDbEntity
  8
Default
100
AcDbLine
 10
-47.18665121532783
 20
-47.69125267895892
 30
0.0
 11
-47.18665121532783
 21
-40.28329202232599
 31
0.0
  0
LINE
  5
FC
330
1F
100
AcDbEntity
  8
Default
100
AcDbLine
 10
-47.18665121532783
 20
-40.28329202232599
 30
0.0
 11
-47.18665121532783
 21
-32.87533136569308
 31
0.0
  0
LINE
  5
FD
330
1F
100
AcDbEntity
  8
Default
100
AcDbLine
 10
-47.18665121532783
 20
-32.87533136569308
 30
0.0
 11
-47.31074897317805
 21
-32.87533136569308
 31
0.0
  0
LINE
  5
FE
330
1F
100
AcDbEntity
  8
Default
100
AcDbLine
 10
-47.31074897317805
 20
-32.87533136569308
 30
0.0
 11
-47.31074897317805
 21
-40.28329202232599
 31
0.0
  0
LINE
  5
FF
330
1F
100
AcDbEntity
  8
Default
100
AcDbLine
 10
-47.31074897317805
 20
-40.28329202232599
 30
0.0
 11
-47.31074897317805
 21
-47.69125267895892
 31
0.0
  0
LINE
  5
100
330
1F
100
AcDbEntity
  8
Default
100
AcDbLine
 10
-47.31074897317805
 20
-47.69125267895892
 30
0.0
 11
-47.18665121532783
 21
-47.69125267895892
 31
0.0
  0
LINE
  5
101
330
1F
100
AcDbEntity
  8
Default
100
AcDbLine
 10
-45.20098777179097
 20
-47.69125267895892
 30
0.0
 11
-45.20098777179097
 21
-40.28329202232599
 31
0.0
  0
LINE
  5
102
330
1F
100
AcDbEntity
  8
Default
100
AcDbLine
 10
-45.20098777179097
 20
-40.28329202232599
 30
0.0
 11
-45.20098777179097
 21
-32.87533136569308
 31
0.0
  0
LINE
  5
103
330
1F
100
AcDbEntity
  8
Default
100
AcDbLine
 10
-45.20098777179097
 20
-32.87533136569308
 30
0.0
 11
-45.32508552964119
 21
-32.87533136569308
 31
0.0
  0
LINE
  5
104
330
1F
100
AcDbEntity
  8
Default
100
AcDbLine
 10
-45.32508552964119
 20
-32.87533136569308
 30
0.0
 11
-45.32508552964119
 21
-40.28329202232599
 31
0.0
  0
LINE
  5
105
330
1F
100
AcDbEntity
  8
Default
100
AcDbLine
 10
-45.32508552964119
 20
-40.28329202232599
 30
0.0
 11
-45.32508552964119
 21
-47.69125267895892
 31
0.0
  0
LINE
  5
106
330
1F
100
AcDbEntity
  8
Default
100
AcDbLine
 10
-45.32508552964119
 20
-47.69125267895892
 30
0.0
 11
-45.20098777179097
 21
-47.69125267895892
 31
0.0
  0
LINE
  5
107
330
1F
100
AcDbEntity
  8
Default
100
AcDbLine
 10
-43.21532432825411
 20
-47.69125267895892
 30
0.0
 11
-43.21532432825411
 21
-40.28329202232599
 31
0.0
  0
LINE
  5
108
330
1F
100
AcDbEntity
  8
Default
100
AcDbLine
 10
-43.21532432825411
 20
-40.28329202232599
 30
0.0
 11
-43.21532432825411
 21
-32.87533136569308
 31
0.0
  0
LINE
  5
109
330
1F
100
AcDbEntity
  8
Default
100
AcDbLine
 10
-43.21532432825411
 20
-32.87533136569308
 30
0.0
 11
-43.33942208610432
 21
-32.87533136569308
 31
0.0
  0
LINE
  5
10A
330
1F
100
AcDbEntity
  8
Default
100
AcDbLine
 10
-43.33942208610432
 20
-32.87533136569308
 30
0.0
 11
-43.33942208610432
 21
-40.28329202232599
 31
0.0
  0
LINE
  5
10B
330
1F
100
AcDbEntity
  8
Default
100
AcDbLine
 10
-43.33942208610432
 20
-40.28329202232599
 30
0.0
 11
-43.33942208610432
 21
-47.69125267895892
 31
0.0
  0
LINE
  5
10C
330
1F
100
AcDbEntity
  8
Default
100
AcDbLine
 10
-43.33942208610432
 20
-47.69125267895892
 30
0.0
 11
-43.21532432825411
 21
-47.69125267895892
 31
0.0
  0
LINE
  5
10D
330
1F
100
AcDbEntity
  8
Default
100
AcDbLine
 10
-41.22966088471725
 20
-47.69125267895892
 30
0.0
 11
-41.22966088471725
 21
-40.28329202232599
 31
0.0
  0
LINE
  5
10E
330
1F
100
AcDbEntity
  8
Default
100
AcDbLine
 10
-41.22966088471725
 20
-40.28329202232599
 30
0.0
 11
-41.22966088471725
 21
-32.87533136569308
 31
0.0
  0
LINE
  5
10F
330
1F
100
AcDbEntity
  8
Default
100
AcDbLine
 10
-41.22966088471725
 20
-32.87533136569308
 30
0.0
 11
-41.35375864256746
 21
-32.87533136569308
 31
0.0
  0
LINE
  5
110
330
1F
100
AcDbEntity
  8
Default
100
AcDbLine
 10
-41.35375864256746
 20
-32.87533136569308
 30
0.0
 11
-41.35375864256746
 21
-40.28329202232599
 31
0.0
  0
LINE
  5
111
330
1F
100
AcDbEntity
  8
Default
100
AcDbLine
 10
-41.35375864256746
 20
-40.28329202232599
 30
0.0
 11
-41.35375864256746
 21
-47.69125267895892
 31
0.0
  0
LINE
  5
112
330
1F
100
AcDbEntity
  8
Default
100
AcDbLine
 10
-41.35375864256746
 20
-47.69125267895892
 30
0.0
 11
-41.22966088471725
 21
-47.69125267895892
 31
0.0
  0
LINE
  5
113
330
1F
100
AcDbEntity
  8
Default
100
AcDbLine
 10
-37.25833399764353
 20
-47.69125267895892
 30
0.0
 11
-37.25833399764353
 21
-40.28329202232599
 31
0.0
  0
LINE
  5
114
330
1F
100
AcDbEntity
  8
Default
100
AcDbLine
 10
-37.25833399764353
 20
-40.28329202232599
 30
0.0
 11
-37.25833399764353
 21
-32.87533136569308
 31
0.0
  0
LINE
  5
115
330
1F
100
AcDbEntity
  8
Default
100
AcDbLine
 10
-37.25833399764353
 20
-32.87533136569308
 30
0.0
 11
-37.38243175549374
 21
-32.87533136569308
 31
0.0
  0
LINE
  5
116
330
1F
100
AcDbEntity
  8
Default
100
AcDbLine
 10
-37.38243175549374
 20
-32.87533136569308
 30
0.0
 11
-37.38243175549374
 21
-40.28329202232599
 31
0.0
  0
LINE
  5
117
330
1F
100
AcDbEntity
  8
Default
100
AcDbLine
 10
-37.38243175549374
 20
-40.28329202232599
 30
0.0
 11
-37.38243175549374
 21
-47.69125267895892
 31
0.0
  0
LINE
  5
118
330
1F
100
AcDbEntity
  8
Default
100
AcDbLine
 10
-37.38243175549374
 20
-47.69125267895892
 30
0.0
 11
-37.25833399764353
 21
-47.69125267895892
 31
0.0
  0
LINE
  5
119
330
1F
100
AcDbEntity
  8
Default
100
AcDbLine
 10
-35.27267055410666
 20
-47.69125267895892
 30
0.0
 11
-35.27267055410666
 21
-40.28329202232599
 31
0.0
  0
LINE
  5
11A
330
1F
100
AcDbEntity
  8
Default
100
AcDbLine
 10
-35.27267055410666
 20
-40.28329202232599
 30
0.0
 11
-35.27267055410666
 21
-32.87533136569308
 31
0.0
  0
LINE
  5
11B
330
1F
100
AcDbEntity
  8
Default
100
AcDbLine
 10
-35.27267055410666
 20
-32.87533136569308
 30
0.0
 11
-35.39676831195688
 21
-32.87533136569308
 31
0.0
  0
LINE
  5
11C
330
1F
100
AcDbEntity
  8
Default
100
AcDbLine
 10
-35.39676831195688
 20
-32.87533136569308
 30
0.0
 11
-35.39676831195688
 21
-40.28329202232599
 31
0.0
  0
LINE
  5
11D
330
1F
100
AcDbEntity
  8
Default
100
AcDbLine
 10
-35.39676831195688
 20
-40.28329202232599
 30
0.0
 11
-35.39676831195688
 21
-47.69125267895892
 31
0.0
  0
LINE
  5
11E
330
1F
100
AcDbEntity
  8
Default
100
AcDbLine
 10
-35.39676831195688
 20
-47.69125267895892
 30
0.0
 11
-35.27267055410666
 21
-47.69125267895892
 31
0.0
  0
LINE
  5
11F
330
1F
100
AcDbEntity
  8
Default
100
AcDbLine
 10
-33.2870071105698
 20
-47.69125267895892
 30
0.0
 11
-33.2870071105698
 21
-40.28329202232599
 31
0.0
  0
LINE
  5
120
330
1F
100
AcDbEntity
  8
Default
100
AcDbLine
 10
-33.2870071105698
 20
-40.28329202232599
 30
0.0
 11
-33.2870071105698
 21
-32.87533136569308
 31
0.0
  0
LINE
  5
121
330
1F
100
AcDbEntity
  8
Default
100
AcDbLine
 10
-33.2870071105698
 20
-32.87533136569308
 30
0.0
 11
-33.41110486842001
 21
-32.87533136569308
 31
0.0
  0
LINE
  5
122
330
1F
100
AcDbEntity
  8
Default
100
AcDbLine
 10
-33.41110486842001
 20
-32.87533136569308
 30
0.0
 11
-33.41110486842001
 21
-40.28329202232599
 31
0.0
  0
LINE
  5
123
330
1F
100
AcDbEntity
  8
Default
100
AcDbLine
 10
-33.41110486842001
 20
-40.28329202232599
 30
0.0
 11
-33.41110486842001
 21
-47.69125267895892
 31
0.0
  0
LINE
  5
124
330
1F
100
AcDbEntity
  8
Default
100
AcDbLine
 10
-33.41110486842001
 20
-47.69125267895892
 30
0.0
 11
-33.2870071105698
 21
-47.69125267895892
 31
0.0
  0
LINE
  5
125
330
1F
100
AcDbEntity
  8
Default
100
AcDbLine
 10
-66.05045392892802
 20
-47.69125267895892
 30
0.0
 11
-66.05045392892802
 21
-40.28329202232599
 31
0.0
  0
LINE
  5
126
330
1F
100
AcDbEntity
  8
Default
100
AcDbLine
 10
-66.05045392892802
 20
-40.28329202232599
 30
0.0
 11
-66.05045392892802
 21
-32.87533136569308
 31
0.0
  0
LINE
  5
127
330
1F
100
AcDbEntity
  8
Default
100
AcDbLine
 10
-66.05045392892802
 20
-32.87533136569308
 30
0.0
 11
-66.11250280785313
 21
-32.87533136569308
 31
0.0
  0
LINE
  5
128
330
1F
100
AcDbEntity
  8
Default
100
AcDbLine
 10
-66.11250280785313
 20
-32.87533136569308
 30
0.0
 11
-66.17455168677823
 21
-32.87533136569308
 31
0.0
  0
LINE
  5
129
330
1F
100
AcDbEntity
  8
Default
100
AcDbLine
 10
-66.17455168677823
 20
-32.87533136569308
 30
0.0
 11
-66.17455168677823
 21
-40.28329202232599
 31
0.0
  0
LINE
  5
12A
330
1F
100
AcDbEntity
  8
Default
100
AcDbLine
 10
-66.17455168677823
 20
-40.28329202232599
 30
0.0
 11
-66.17455168677823
 21
-47.69125267895892
 31
0.0
  0
LINE
  5
12B
330
1F
100
AcDbEntity
  8
Default
100
AcDbLine
 10
-66.17455168677823
 20
-47.69125267895892
 30
0.0
 11
-66.11250280785313
 21
-47.69125267895892
 31
0.0
  0
LINE
  5
12C
330
1F
100
AcDbEntity
  8
Default
100
AcDbLine
 10
-66.11250280785313
 20
-47.69125267895892
 30
0.0
 11
-66.05045392892802
 21
-47.69125267895892
 31
0.0
  0
LINE
  5
12D
330
1F
100
AcDbEntity
  8
Default
100
AcDbLine
 10
-65.18171996500982
 20
-40.28329202232599
 30
0.0
 11
-65.18171996500982
 21
-32.87533136569308
 31
0.0
  0
LINE
  5
12E
330
1F
100
AcDbEntity
  8
Default
100
AcDbLine
 10
-65.18171996500982
 20
-32.87533136569308
 30
0.0
 11
-65.0576222071596
 21
-32.87533136569308
 31
0.0
  0
LINE
  5
12F
330
1F
100
AcDbEntity
  8
Default
100
AcDbLine
 10
-65.0576222071596
 20
-32.87533136569308
 30
0.0
 11
-65.0576222071596
 21
-40.28329202232599
 31
0.0
  0
LINE
  5
130
330
1F
100
AcDbEntity
  8
Default
100
AcDbLine
 10
-65.0576222071596
 20
-40.28329202232599
 30
0.0
 11
-65.0576222071596
 21
-47.69125267895892
 31
0.0
  0
LINE
  5
131
330
1F
100
AcDbEntity
  8
Default
100
AcDbLine
 10
-65.0576222071596
 20
-47.69125267895892
 30
0.0
 11
-65.18171996500982
 21
-47.69125267895892
 31
0.0
  0
LINE
  5
132
330
1F
100
AcDbEntity
  8
Default
100
AcDbLine
 10
-65.18171996500982
 20
-47.69125267895892
 30
0.0
 11
-65.18171996500982
 21
-40.28329202232599
 31
0.0
  0
LINE
  5
133
330
1F
100
AcDbEntity
  8
Default
100
AcDbLine
 10
-64.06479048539116
 20
-47.69125267895892
 30
0.0
 11
-64.06479048539116
 21
-40.28329202232599
 31
0.0
  0
LINE
  5
134
330
1F
100
AcDbEntity
  8
Default
100
AcDbLine
 10
-64.06479048539116
 20
-40.28329202232599
 30
0.0
 11
-64.06479048539116
 21
-32.87533136569308
 31
0.0
  0
LINE
  5
135
330
1F
100
AcDbEntity
  8
Default
100
AcDbLine
 10
-64.06479048539116
 20
-32.87533136569308
 30
0.0
 11
-64.12683936431627
 21
-32.87533136569308
 31
0.0
  0
LINE
  5
136
330
1F
100
AcDbEntity
  8
Default
100
AcDbLine
 10
-64.12683936431627
 20
-32.87533136569308
 30
0.0
 11
-64.18888824324137
 21
-32.87533136569308
 31
0.0
  0
LINE
  5
137
330
1F
100
AcDbEntity
  8
Default
100
AcDbLine
 10
-64.18888824324137
 20
-32.87533136569308
 30
0.0
 11
-64.18888824324137
 21
-40.28329202232599
 31
0.0
  0
LINE
  5
138
330
1F
100
AcDbEntity
  8
Default
100
AcDbLine
 10
-64.18888824324137
 20
-40.28329202232599
 30
0.0
 11
-64.18888824324137
 21
-47.69125267895892
 31
0.0
  0
LINE
  5
139
330
1F
100
AcDbEntity
  8
Default
100
AcDbLine
 10
-64.18888824324137
 20
-47.69125267895892
 30
0.0
 11
-64.12683936431627
 21
-47.69125267895892
 31
0.0
  0
LINE
  5
13A
330
1F
100
AcDbEntity
  8
Default
100
AcDbLine
 10
-64.12683936431627
 20
-47.69125267895892
 30
0.0
 11
-64.06479048539116
 21
-47.69125267895892
 31
0.0
  0
LINE
  5
13B
330
1F
100
AcDbEntity
  8
Default
100
AcDbLine
 10
-62.07912704185429
 20
-47.69125267895892
 30
0.0
 11
-62.07912704185429
 21
-40.28329202232599
 31
0.0
  0
LINE
  5
13C
330
1F
100
AcDbEntity
  8
Default
100
AcDbLine
 10
-62.07912704185429
 20
-40.28329202232599
 30
0.0
 11
-62.07912704185429
 21
-32.87533136569308
 31
0.0
  0
LINE
  5
13D
330
1F
100
AcDbEntity
  8
Default
100
AcDbLine
 10
-62.07912704185429
 20
-32.87533136569308
 30
0.0
 11
-62.1411759207794
 21
-32.87533136569308
 31
0.0
  0
LINE
  5
13E
330
1F
100
AcDbEntity
  8
Default
100
AcDbLine
 10
-62.1411759207794
 20
-32.87533136569308
 30
0.0
 11
-62.2032247997045
 21
-32.87533136569308
 31
0.0
  0
LINE
  5
13F
330
1F
100
AcDbEntity
  8
Default
100
AcDbLine
 10
-62.2032247997045
 20
-32.87533136569308
 30
0.0
 11
-62.2032247997045
 21
-40.28329202232599
 31
0.0
  0
LINE
  5
140
330
1F
100
AcDbEntity
  8
Default
100
AcDbLine
 10
-62.2032247997045
 20
-40.28329202232599
 30
0.0
 11
-62.2032247997045
 21
-47.69125267895892
 31
0.0
  0
LINE
  5
141
330
1F
100
AcDbEntity
  8
Default
100
AcDbLine
 10
-62.2032247997045
 20
-47.69125267895892
 30
0.0
 11
-62.1411759207794
 21
-47.69125267895892
 31
0.0
  0
LINE
  5
142
330
1F
100
AcDbEntity
  8
Default
100
AcDbLine
 10
-62.1411759207794
 20
-47.69125267895892
 30
0.0
 11
-62.07912704185429
 21
-47.69125267895892
 31
0.0
  0
LINE
  5
143
330
1F
100
AcDbEntity
  8
Default
100
AcDbLine
 10
-60.09346359831743
 20
-47.69125267895892
 30
0.0
 11
-60.09346359831743
 21
-40.28329202232599
 31
0.0
  0
LINE
  5
144
330
1F
100
AcDbEntity
  8
Default
100
AcDbLine
 10
-60.09346359831743
 20
-40.28329202232599
 30
0.0
 11
-60.09346359831743
 21
-32.87533136569308
 31
0.0
  0
LINE
  5
145
330
1F
100
AcDbEntity
  8
Default
100
AcDbLine
 10
-60.09346359831743
 20
-32.87533136569308
 30
0.0
 11
-60.15551247724254
 21
-32.87533136569308
 31
0.0
  0
LINE
  5
146
330
1F
100
AcDbEntity
  8
Default
100
AcDbLine
 10
-60.15551247724254
 20
-32.87533136569308
 30
0.0
 11
-60.21756135616764
 21
-32.87533136569308
 31
0.0
  0
LINE
  5
147
330
1F
100
AcDbEntity
  8
Default
100
AcDbLine
 10
-60.21756135616764
 20
-32.87533136569308
 30
0.0
 11
-60.21756135616764
 21
-40.28329202232599
 31
0.0
  0
LINE
  5
148
330
1F
100
AcDbEntity
  8
Default
100
AcDbLine
 10
-60.21756135616764
 20
-40.28329202232599
 30
0.0
 11
-60.21756135616764
 21
-47.69125267895892
 31
0.0
  0
LINE
  5
149
330
1F
100
AcDbEntity
  8
Default
100
AcDbLine
 10
-60.21756135616764
 20
-47.69125267895892
 30
0.0
 11
-60.15551247724254
 21
-47.69125267895892
 31
0.0
  0
LINE
  5
14A
330
1F
100
AcDbEntity
  8
Default
100
AcDbLine
 10
-60.15551247724254
 20
-47.69125267895892
 30
0.0
 11
-60.09346359831743
 21
-47.69125267895892
 31
0.0
  0
LINE
  5
14B
330
1F
100
AcDbEntity
  8
Default
100
AcDbLine
 10
-58.23189791263077
 20
-40.28329202232599
 30
0.0
 11
-58.23189791263077
 21
-32.87533136569308
 31
0.0
  0
LINE
  5
14C
330
1F
100
AcDbEntity
  8
Default
100
AcDbLine
 10
-58.23189791263077
 20
-32.87533136569308
 30
0.0
 11
-58.16984903370567
 21
-32.87533136569308
 31
0.0
  0
LINE
  5
14D
330
1F
100
AcDbEntity
  8
Default
100
AcDbLine
 10
-58.16984903370567
 20
-32.87533136569308
 30
0.0
 11
-58.10780015478057
 21
-32.87533136569308
 31
0.0
  0
LINE
  5
14E
330
1F
100
AcDbEntity
  8
Default
100
AcDbLine
 10
-58.10780015478057
 20
-32.87533136569308
 30
0.0
 11
-58.10780015478057
 21
-40.28329202232599
 31
0.0
  0
LINE
  5
14F
330
1F
100
AcDbEntity
  8
Default
100
AcDbLine
 10
-58.10780015478057
 20
-40.28329202232599
 30
0.0
 11
-58.10780015478057
 21
-47.69125267895892
 31
0.0
  0
LINE
  5
150
330
1F
100
AcDbEntity
  8
Default
100
AcDbLine
 10
-58.10780015478057
 20
-47.69125267895892
 30
0.0
 11
-58.16984903370567
 21
-47.69125267895892
 31
0.0
  0
LINE
  5
151
330
1F
100
AcDbEntity
  8
Default
100
AcDbLine
 10
-58.16984903370567
 20
-47.69125267895892
 30
0.0
 11
-58.23189791263077
 21
-47.69125267895892
 31
0.0
  0
LINE
  5
152
330
1F
100
AcDbEntity
  8
Default
100
AcDbLine
 10
-58.23189791263077
 20
-47.69125267895892
 30
0.0
 11
-58.23189791263077
 21
-40.28329202232599
 31
0.0
  0
LINE
  5
153
330
1F
100
AcDbEntity
  8
Default
100
AcDbLine
 10
-56.12213671124371
 20
-47.69125267895892
 30
0.0
 11
-56.12213671124371
 21
-40.28329202232599
 31
0.0
  0
LINE
  5
154
330
1F
100
AcDbEntity
  8
Default
100
AcDbLine
 10
-56.12213671124371
 20
-40.28329202232599
 30
0.0
 11
-56.12213671124371
 21
-32.87533136569308
 31
0.0
  0
LINE
  5
155
330
1F
100
AcDbEntity
  8
Default
100
AcDbLine
 10
-56.12213671124371
 20
-32.87533136569308
 30
0.0
 11
-56.18418559016882
 21
-32.87533136569308
 31
0.0
  0
LINE
  5
156
330
1F
100
AcDbEntity
  8
Default
100
AcDbLine
 10
-56.18418559016882
 20
-32.87533136569308
 30
0.0
 11
-56.24623446909391
 21
-32.87533136569308
 31
0.0
  0
LINE
  5
157
330
1F
100
AcDbEntity
  8
Default
100
AcDbLine
 10
-56.24623446909391
 20
-32.87533136569308
 30
0.0
 11
-56.24623446909391
 21
-40.28329202232599
 31
0.0
  0
LINE
  5
158
330
1F
100
AcDbEntity
  8
Default
100
AcDbLine
 10
-56.24623446909391
 20
-40.28329202232599
 30
0.0
 11
-56.24623446909391
 21
-47.69125267895892
 31
0.0
  0
LINE
  5
159
330
1F
100
AcDbEntity
  8
Default
100
AcDbLine
 10
-56.24623446909391
 20
-47.69125267895892
 30
0.0
 11
-56.18418559016882
 21
-47.69125267895892
 31
0.0
  0
LINE
  5
15A
330
1F
100
AcDbEntity
  8
Default
100
AcDbLine
 10
-56.18418559016882
 20
-47.69125267895892
 30
0.0
 11
-56.12213671124371
 21
-47.69125267895892
 31
0.0
  0
LINE
  5
15B
330
1F
100
AcDbEntity
  8
Default
100
AcDbLine
 10
-54.13647326770685
 20
-47.69125267895892
 30
0.0
 11
-54.13647326770685
 21
-40.28329202232599
 31
0.0
  0
LINE
  5
15C
330
1F
100
AcDbEntity
  8
Default
100
AcDbLine
 10
-54.13647326770685
 20
-40.28329202232599
 30
0.0
 11
-54.13647326770685
 21
-32.87533136569308
 31
0.0
  0
LINE
  5
15D
330
1F
100
AcDbEntity
  8
Default
100
AcDbLine
 10
-54.13647326770685
 20
-32.87533136569308
 30
0.0
 11
-54.19852214663196
 21
-32.87533136569308
 31
0.0
  0
LINE
  5
15E
330
1F
100
AcDbEntity
  8
Default
100
AcDbLine
 10
-54.19852214663196
 20
-32.87533136569308
 30
0.0
 11
-54.26057102555705
 21
-32.87533136569308
 31
0.0
  0
LINE
  5
15F
330
1F
100
AcDbEntity
  8
Default
100
AcDbLine
 10
-54.26057102555705
 20
-32.87533136569308
 30
0.0
 11
-54.26057102555705
 21
-40.28329202232599
 31
0.0
  0
LINE
  5
160
330
1F
100
AcDbEntity
  8
Default
100
AcDbLine
 10
-54.26057102555705
 20
-40.28329202232599
 30
0.0
 11
-54.26057102555705
 21
-47.69125267895892
 31
0.0
  0
LINE
  5
161
330
1F
100
AcDbEntity
  8
Default
100
AcDbLine
 10
-54.26057102555705
 20
-47.69125267895892
 30
0.0
 11
-54.19852214663196
 21
-47.69125267895892
 31
0.0
  0
LINE
  5
162
330
1F
100
AcDbEntity
  8
Default
100
AcDbLine
 10
-54.19852214663196
 20
-47.69125267895892
 30
0.0
 11
-54.13647326770685
 21
-47.69125267895892
 31
0.0
  0
LINE
  5
163
330
1F
100
AcDbEntity
  8
Default
100
AcDbLine
 10
-52.27490758202019
 20
-40.28329202232599
 30
0.0
 11
-52.27490758202019
 21
-32.87533136569308
 31
0.0
  0
LINE
  5
164
330
1F
100
AcDbEntity
  8
Default
100
AcDbLine
 10
-52.27490758202019
 20
-32.87533136569308
 30
0.0
 11
-52.21285870309509
 21
-32.87533136569308
 31
0.0
  0
LINE
  5
165
330
1F
100
AcDbEntity
  8
Default
100
AcDbLine
 10
-52.21285870309509
 20
-32.87533136569308
 30
0.0
 11
-52.15080982416998
 21
-32.87533136569308
 31
0.0
  0
LINE
  5
166
330
1F
100
AcDbEntity
  8
Default
100
AcDbLine
 10
-52.15080982416998
 20
-32.87533136569308
 30
0.0
 11
-52.15080982416998
 21
-40.28329202232599
 31
0.0
  0
LINE
  5
167
330
1F
100
AcDbEntity
  8
Default
100
AcDbLine
 10
-52.15080982416998
 20
-40.28329202232599
 30
0.0
 11
-52.15080982416998
 21
-47.69125267895892
 31
0.0
  0
LINE
  5
168
330
1F
100
AcDbEntity
  8
Default
100
AcDbLine
 10
-52.15080982416998
 20
-47.69125267895892
 30
0.0
 11
-52.21285870309509
 21
-47.69125267895892
 31
0.0
  0
LINE
  5
169
330
1F
100
AcDbEntity
  8
Default
100
AcDbLine
 10
-52.21285870309509
 20
-47.69125267895892
 30
0.0
 11
-52.27490758202019
 21
-47.69125267895892
 31
0.0
  0
LINE
  5
16A
330
1F
100
AcDbEntity
  8
Default
100
AcDbLine
 10
-52.27490758202019
 20
-47.69125267895892
 30
0.0
 11
-52.27490758202019
 21
-40.28329202232599
 31
0.0
  0
LINE
  5
16B
330
1F
100
AcDbEntity
  8
Default
100
AcDbLine
 10
-50.16514638063313
 20
-47.69125267895892
 30
0.0
 11
-50.16514638063313
 21
-40.28329202232599
 31
0.0
  0
LINE
  5
16C
330
1F
100
AcDbEntity
  8
Default
100
AcDbLine
 10
-50.16514638063313
 20
-40.28329202232599
 30
0.0
 11
-50.16514638063313
 21
-32.87533136569308
 31
0.0
  0
LINE
  5
16D
330
1F
100
AcDbEntity
  8
Default
100
AcDbLine
 10
-50.16514638063313
 20
-32.87533136569308
 30
0.0
 11
-50.22719525955823
 21
-32.87533136569308
 31
0.0
  0
LINE
  5
16E
330
1F
100
AcDbEntity
  8
Default
100
AcDbLine
 10
-50.22719525955823
 20
-32.87533136569308
 30
0.0
 11
-50.28924413848333
 21
-32.87533136569308
 31
0.0
  0
LINE
  5
16F
330
1F
100
AcDbEntity
  8
Default
100
AcDbLine
 10
-50.28924413848333
 20
-32.87533136569308
 30
0.0
 11
-50.28924413848333
 21
-40.28329202232599
 31
0.0
  0
LINE
  5
170
330
1F
100
AcDbEntity
  8
Default
100
AcDbLine
 10
-50.28924413848333
 20
-40.28329202232599
 30
0.0
 11
-50.28924413848333
 21
-47.69125267895892
 31
0.0
  0
LINE
  5
171
330
1F
100
AcDbEntity
  8
Default
100
AcDbLine
 10
-50.28924413848333
 20
-47.69125267895892
 30
0.0
 11
-50.22719525955823
 21
-47.69125267895892
 31
0.0
  0
LINE
  5
172
330
1F
100
AcDbEntity
  8
Default
100
AcDbLine
 10
-50.22719525955823
 20
-47.69125267895892
 30
0.0
 11
-50.16514638063313
 21
-47.69125267895892
 31
0.0
  0
LINE
  5
173
330
1F
100
AcDbEntity
  8
Default
100
AcDbLine
 10
-48.17948293709626
 20
-47.69125267895892
 30
0.0
 11
-48.17948293709626
 21
-40.28329202232599
 31
0.0
  0
LINE
  5
174
330
1F
100
AcDbEntity
  8
Default
100
AcDbLine
 10
-48.17948293709626
 20
-40.28329202232599
 30
0.0
 11
-48.17948293709626
 21
-32.87533136569308
 31
0.0
  0
LINE
  5
175
330
1F
100
AcDbEntity
  8
Default
100
AcDbLine
 10
-48.17948293709626
 20
-32.87533136569308
 30
0.0
 11
-48.24153181602137
 21
-32.87533136569308
 31
0.0
  0
LINE
  5
176
330
1F
100
AcDbEntity
  8
Default
100
AcDbLine
 10
-48.24153181602137
 20
-32.87533136569308
 30
0.0
 11
-48.30358069494647
 21
-32.87533136569308
 31
0.0
  0
LINE
  5
177
330
1F
100
AcDbEntity
  8
Default
100
AcDbLine
 10
-48.30358069494647
 20
-32.87533136569308
 30
0.0
 11
-48.30358069494647
 21
-40.28329202232599
 31
0.0
  0
LINE
  5
178
330
1F
100
AcDbEntity
  8
Default
100
AcDbLine
 10
-48.30358069494647
 20
-40.28329202232599
 30
0.0
 11
-48.30358069494647
 21
-47.69125267895892
 31
0.0
  0
LINE
  5
179
330
1F
100
AcDbEntity
  8
Default
100
AcDbLine
 10
-48.30358069494647
 20
-47.69125267895892
 30
0.0
 11
-48.24153181602137
 21
-47.69125267895892
 31
0.0
  0
LINE
  5
17A
330
1F
100
AcDbEntity
  8
Default
100
AcDbLine
 10
-48.24153181602137
 20
-47.69125267895892
 30
0.0
 11
-48.17948293709626
 21
-47.69125267895892
 31
0.0
  0
LINE
  5
17B
330
1F
100
AcDbEntity
  8
Default
100
AcDbLine
 10
-46.1938194935594
 20
-47.69125267895892
 30
0.0
 11
-46.1938194935594
 21
-40.28329202232599
 31
0.0
  0
LINE
  5
17C
330
1F
100
AcDbEntity
  8
Default
100
AcDbLine
 10
-46.1938194935594
 20
-40.28329202232599
 30
0.0
 11
-46.1938194935594
 21
-32.87533136569308
 31
0.0
  0
LINE
  5
17D
330
1F
100
AcDbEntity
  8
Default
100
AcDbLine
 10
-46.1938194935594
 20
-32.87533136569308
 30
0.0
 11
-46.25586837248451
 21
-32.87533136569308
 31
0.0
  0
LINE
  5
17E
330
1F
100
AcDbEntity
  8
Default
100
AcDbLine
 10
-46.25586837248451
 20
-32.87533136569308
 30
0.0
 11
-46.3179172514096
 21
-32.87533136569308
 31
0.0
  0
LINE
  5
17F
330
1F
100
AcDbEntity
  8
Default
100
AcDbLine
 10
-46.3179172514096
 20
-32.87533136569308
 30
0.0
 11
-46.3179172514096
 21
-40.28329202232599
 31
0.0
  0
LINE
  5
180
330
1F
100
AcDbEntity
  8
Default
100
AcDbLine
 10
-46.3179172514096
 20
-40.28329202232599
 30
0.0
 11
-46.3179172514096
 21
-47.69125267895892
 31
0.0
  0
LINE
  5
181
330
1F
100
AcDbEntity
  8
Default
100
AcDbLine
 10
-46.3179172514096
 20
-47.69125267895892
 30
0.0
 11
-46.25586837248451
 21
-47.69125267895892
 31
0.0
  0
LINE
  5
182
330
1F
100
AcDbEntity
  8
Default
100
AcDbLine
 10
-46.25586837248451
 20
-47.69125267895892
 30
0.0
 11
-46.1938194935594
 21
-47.69125267895892
 31
0.0
  0
LINE
  5
183
330
1F
100
AcDbEntity
  8
Default
100
AcDbLine
 10
-44.20815605002254
 20
-47.69125267895892
 30
0.0
 11
-44.20815605002254
 21
-40.28329202232599
 31
0.0
  0
LINE
  5
184
330
1F
100
AcDbEntity
  8
Default
100
AcDbLine
 10
-44.20815605002254
 20
-40.28329202232599
 30
0.0
 11
-44.20815605002254
 21
-32.87533136569308
 31
0.0
  0
LINE
  5
185
330
1F
100
AcDbEntity
  8
Default
100
AcDbLine
 10
-44.20815605002254
 20
-32.87533136569308
 30
0.0
 11
-44.27020492894765
 21
-32.87533136569308
 31
0.0
  0
LINE
  5
186
330
1F
100
AcDbEntity
  8
Default
100
AcDbLine
 10
-44.27020492894765
 20
-32.87533136569308
 30
0.0
 11
-44.33225380787275
 21
-32.87533136569308
 31
0.0
  0
LINE
  5
187
330
1F
100
AcDbEntity
  8
Default
100
AcDbLine
 10
-44.33225380787275
 20
-32.87533136569308
 30
0.0
 11
-44.33225380787275
 21
-40.28329202232599
 31
0.0
  0
LINE
  5
188
330
1F
100
AcDbEntity
  8
Default
100
AcDbLine
 10
-44.33225380787275
 20
-40.28329202232599
 30
0.0
 11
-44.33225380787275
 21
-47.69125267895892
 31
0.0
  0
LINE
  5
189
330
1F
100
AcDbEntity
  8
Default
100
AcDbLine
 10
-44.33225380787275
 20
-47.69125267895892
 30
0.0
 11
-44.27020492894765
 21
-47.69125267895892
 31
0.0
  0
LINE
  5
18A
330
1F
100
AcDbEntity
  8
Default
100
AcDbLine
 10
-44.27020492894765
 20
-47.69125267895892
 30
0.0
 11
-44.20815605002254
 21
-47.69125267895892
 31
0.0
  0
LINE
  5
18B
330
1F
100
AcDbEntity
  8
Default
100
AcDbLine
 10
-42.22249260648567
 20
-47.69125267895892
 30
0.0
 11
-42.22249260648567
 21
-40.28329202232599
 31
0.0
  0
LINE
  5
18C
330
1F
100
AcDbEntity
  8
Default
100
AcDbLine
 10
-42.22249260648567
 20
-40.28329202232599
 30
0.0
 11
-42.22249260648567
 21
-32.87533136569308
 31
0.0
  0
LINE
  5
18D
330
1F
100
AcDbEntity
  8
Default
100
AcDbLine
 10
-42.22249260648567
 20
-32.87533136569308
 30
0.0
 11
-42.28454148541078
 21
-32.87533136569308
 31
0.0
  0
LINE
  5
18E
330
1F
100
AcDbEntity
  8
Default
100
AcDbLine
 10
-42.28454148541078
 20
-32.87533136569308
 30
0.0
 11
-42.34659036433588
 21
-32.87533136569308
 31
0.0
  0
LINE
  5
18F
330
1F
100
AcDbEntity
  8
Default
100
AcDbLine
 10
-42.34659036433588
 20
-32.87533136569308
 30
0.0
 11
-42.34659036433588
 21
-40.28329202232599
 31
0.0
  0
LINE
  5
190
330
1F
100
AcDbEntity
  8
Default
100
AcDbLine
 10
-42.34659036433588
 20
-40.28329202232599
 30
0.0
 11
-42.34659036433588
 21
-47.69125267895892
 31
0.0
  0
LINE
  5
191
330
1F
100
AcDbEntity
  8
Default
100
AcDbLine
 10
-42.34659036433588
 20
-47.69125267895892
 30
0.0
 11
-42.28454148541078
 21
-47.69125267895892
 31
0.0
  0
LINE
  5
192
330
1F
100
AcDbEntity
  8
Default
100
AcDbLine
 10
-42.28454148541078
 20
-47.69125267895892
 30
0.0
 11
-42.22249260648567
 21
-47.69125267895892
 31
0.0
  0
LINE
  5
193
330
1F
100
AcDbEntity
  8
Default
100
AcDbLine
 10
-40.23682916294882
 20
-47.69125267895892
 30
0.0
 11
-40.23682916294882
 21
-40.28329202232599
 31
0.0
  0
LINE
  5
194
330
1F
100
AcDbEntity
  8
Default
100
AcDbLine
 10
-40.23682916294882
 20
-40.28329202232599
 30
0.0
 11
-40.23682916294882
 21
-32.87533136569308
 31
0.0
  0
LINE
  5
195
330
1F
100
AcDbEntity
  8
Default
100
AcDbLine
 10
-40.23682916294882
 20
-32.87533136569308
 30
0.0
 11
-40.29887804187392
 21
-32.87533136569308
 31
0.0
  0
LINE
  5
196
330
1F
100
AcDbEntity
  8
Default
100
AcDbLine
 10
-40.29887804187392
 20
-32.87533136569308
 30
0.0
 11
-40.36092692079902
 21
-32.87533136569308
 31
0.0
  0
LINE
  5
197
330
1F
100
AcDbEntity
  8
Default
100
AcDbLine
 10
-40.36092692079902
 20
-32.87533136569308
 30
0.0
 11
-40.36092692079902
 21
-40.28329202232599
 31
0.0
  0
LINE
  5
198
330
1F
100
AcDbEntity
  8
Default
100
AcDbLine
 10
-40.36092692079902
 20
-40.28329202232599
 30
0.0
 11
-40.36092692079902
 21
-47.69125267895892
 31
0.0
  0
LINE
  5
199
330
1F
100
AcDbEntity
  8
Default
100
AcDbLine
 10
-40.36092692079902
 20
-47.69125267895892
 30
0.0
 11
-40.29887804187392
 21
-47.69125267895892
 31
0.0
  0
LINE
  5
19A
330
1F
100
AcDbEntity
  8
Default
100
AcDbLine
 10
-40.29887804187392
 20
-47.69125267895892
 30
0.0
 11
-40.23682916294882
 21
-47.69125267895892
 31
0.0
  0
LINE
  5
19B
330
1F
100
AcDbEntity
  8
Default
100
AcDbLine
 10
-38.25116571941196
 20
-47.69125267895892
 30
0.0
 11
-38.25116571941196
 21
-40.28329202232599
 31
0.0
  0
LINE
  5
19C
330
1F
100
AcDbEntity
  8
Default
100
AcDbLine
 10
-38.25116571941196
 20
-40.28329202232599
 30
0.0
 11
-38.25116571941196
 21
-32.87533136569308
 31
0.0
  0
LINE
  5
19D
330
1F
100
AcDbEntity
  8
Default
100
AcDbLine
 10
-38.25116571941196
 20
-32.87533136569308
 30
0.0
 11
-38.31321459833706
 21
-32.87533136569308
 31
0.0
  0
LINE
  5
19E
330
1F
100
AcDbEntity
  8
Default
100
AcDbLine
 10
-38.31321459833706
 20
-32.87533136569308
 30
0.0
 11
-38.37526347726216
 21
-32.87533136569308
 31
0.0
  0
LINE
  5
19F
330
1F
100
AcDbEntity
  8
Default
100
AcDbLine
 10
-38.37526347726216
 20
-32.87533136569308
 30
0.0
 11
-38.37526347726216
 21
-40.28329202232599
 31
0.0
  0
LINE
  5
1A0
330
1F
100
AcDbEntity
  8
Default
100
AcDbLine
 10
-38.37526347726216
 20
-40.28329202232599
 30
0.0
 11
-38.37526347726216
 21
-47.69125267895892
 31
0.0
  0
LINE
  5
1A1
330
1F
100
AcDbEntity
  8
Default
100
AcDbLine
 10
-38.37526347726216
 20
-47.69125267895892
 30
0.0
 11
-38.31321459833706
 21
-47.69125267895892
 31
0.0
  0
LINE
  5
1A2
330
1F
100
AcDbEntity
  8
Default
100
AcDbLine
 10
-38.31321459833706
 20
-47.69125267895892
 30
0.0
 11
-38.25116571941196
 21
-47.69125267895892
 31
0.0
  0
LINE
  5
1A3
330
1F
100
AcDbEntity
  8
Default
100
AcDbLine
 10
-34.27983883233823
 20
-47.69125267895892
 30
0.0
 11
-34.27983883233823
 21
-40.28329202232599
 31
0.0
  0
LINE
  5
1A4
330
1F
100
AcDbEntity
  8
Default
100
AcDbLine
 10
-34.27983883233823
 20
-40.28329202232599
 30
0.0
 11
-34.27983883233823
 21
-32.87533136569308
 31
0.0
  0
LINE
  5
1A5
330
1F
100
AcDbEntity
  8
Default
100
AcDbLine
 10
-34.27983883233823
 20
-32.87533136569308
 30
0.0
 11
-34.34188771126334
 21
-32.87533136569308
 31
0.0
  0
LINE
  5
1A6
330
1F
100
AcDbEntity
  8
Default
100
AcDbLine
 10
-34.34188771126334
 20
-32.87533136569308
 30
0.0
 11
-34.40393659018844
 21
-32.87533136569308
 31
0.0
  0
LINE
  5
1A7
330
1F
100
AcDbEntity
  8
Default
100
AcDbLine
 10
-34.40393659018844
 20
-32.87533136569308
 30
0.0
 11
-34.40393659018844
 21
-40.28329202232599
 31
0.0
  0
LINE
  5
1A8
330
1F
100
AcDbEntity
  8
Default
100
AcDbLine
 10
-34.40393659018844
 20
-40.28329202232599
 30
0.0
 11
-34.40393659018844
 21
-47.69125267895892
 31
0.0
  0
LINE
  5
1A9
330
1F
100
AcDbEntity
  8
Default
100
AcDbLine
 10
-34.40393659018844
 20
-47.69125267895892
 30
0.0
 11
-34.34188771126334
 21
-47.69125267895892
 31
0.0
  0
LINE
  5
1AA
330
1F
100
AcDbEntity
  8
Default
100
AcDbLine
 10
-34.34188771126334
 20
-47.69125267895892
 30
0.0
 11
-34.27983883233823
 21
-47.69125267895892
 31
0.0
  0
LINE
  5
1AB
330
1F
100
AcDbEntity
  8
Default
100
AcDbLine
 10
-32.29417538880137
 20
-47.69125267895892
 30
0.0
 11
-32.29417538880137
 21
-40.28329202232599
 31
0.0
  0
LINE
  5
1AC
330
1F
100
AcDbEntity
  8
Default
100
AcDbLine
 10
-32.29417538880137
 20
-40.28329202232599
 30
0.0
 11
-32.29417538880137
 21
-32.87533136569308
 31
0.0
  0
LINE
  5
1AD
330
1F
100
AcDbEntity
  8
Default
100
AcDbLine
 10
-32.29417538880137
 20
-32.87533136569308
 30
0.0
 11
-32.35622426772647
 21
-32.87533136569308
 31
0.0
  0
LINE
  5
1AE
330
1F
100
AcDbEntity
  8
Default
100
AcDbLine
 10
-32.35622426772647
 20
-32.87533136569308
 30
0.0
 11
-32.41827314665157
 21
-32.87533136569308
 31
0.0
  0
LINE
  5
1AF
330
1F
100
AcDbEntity
  8
Default
100
AcDbLine
 10
-32.41827314665157
 20
-32.87533136569308
 30
0.0
 11
-32.41827314665157
 21
-40.28329202232599
 31
0.0
  0
LINE
  5
1B0
330
1F
100
AcDbEntity
  8
Default
100
AcDbLine
 10
-32.41827314665157
 20
-40.28329202232599
 30
0.0
 11
-32.41827314665157
 21
-47.69125267895892
 31
0.0
  0
LINE
  5
1B1
330
1F
100
AcDbEntity
  8
Default
100
AcDbLine
 10
-32.41827314665157
 20
-47.69125267895892
 30
0.0
 11
-32.35622426772647
 21
-47.69125267895892
 31
0.0
  0
LINE
  5
1B2
330
1F
100
AcDbEntity
  8
Default
100
AcDbLine
 10
-32.35622426772647
 20
-47.69125267895892
 30
0.0
 11
-32.29417538880137
 21
-47.69125267895892
 31
0.0
  0
POLYLINE
  5
1B3
330
1F
100
AcDbEntity
  8
Default
100
AcDb2dPolyline
 66
     1
 10
0.0
 20
0.0
 30
0.0
  0
VERTEX
  5
1B4
330
1B3
100
AcDbEntity
  8
Default
100
AcDbVertex
100
AcDb2dVertex
 10
-30.37056082418962
 20
-30.40601572122323
 30
0.0
  0
VERTEX
  5
1B5
330
1B3
100
AcDbEntity
  8
Default
100
AcDbVertex
100
AcDb2dVertex
 10
-30.37056082418962
 20
-50.16056832342876
 30
0.0
  0
SEQEND
  5
1B6
330
1B3
100
AcDbEntity
  8
Default
  0
LINE
  5
1B7
330
1F
100
AcDbEntity
  8
Default
100
AcDbLine
 10
-30.37056082418962
 20
-50.16056832342876
 30
0.0
 11
-30.80492780614872
 21
-50.16058204665214
 31
0.0
  0
LINE
  5
1B8
330
1F
100
AcDbEntity
  8
Default
100
AcDbLine
 10
-30.80492780614872
 20
-50.16058204665214
 30
0.0
 11
-30.80492780614872
 21
-43.57571288161913
 31
0.0
  0
LINE
  5
1B9
330
1F
100
AcDbEntity
  8
Default
100
AcDbLine
 10
-30.80492780614872
 20
-43.57571288161913
 30
0.0
 11
-30.92902556399893
 21
-43.57571288161913
 31
0.0
  0
LINE
  5
1BA
330
1F
100
AcDbEntity
  8
Default
100
AcDbLine
 10
-30.92902556399893
 20
-43.57571288161913
 30
0.0
 11
-30.92902556399893
 21
-50.16055460020539
 31
0.0
  0
LINE
  5
1BB
330
1F
100
AcDbEntity
  8
Default
100
AcDbLine
 10
-30.92902556399893
 20
-50.16055460020539
 30
0.0
 11
-31.79775952791715
 21
-50.16055460020539
 31
0.0
  0
LINE
  5
1BC
330
1F
100
AcDbEntity
  8
Default
100
AcDbLine
 10
-31.79775952791715
 20
-50.16055460020539
 30
0.0
 11
-31.79775952791715
 21
-43.57571288161913
 31
0.0
  0
LINE
  5
1BD
330
1F
100
AcDbEntity
  8
Default
100
AcDbLine
 10
-31.79775952791715
 20
-43.57571288161913
 30
0.0
 11
-31.92185728576736
 21
-43.57571288161913
 31
0.0
  0
LINE
  5
1BE
330
1F
100
AcDbEntity
  8
Default
100
AcDbLine
 10
-31.92185728576736
 20
-43.57571288161913
 30
0.0
 11
-31.92185728576736
 21
-50.16055460020539
 31
0.0
  0
LINE
  5
1BF
330
1F
100
AcDbEntity
  8
Default
100
AcDbLine
 10
-31.92185728576736
 20
-50.16055460020539
 30
0.0
 11
-32.35622426772647
 21
-50.16056832342876
 31
0.0
  0
LINE
  5
1C0
330
1F
100
AcDbEntity
  8
Default
100
AcDbLine
 10
-32.35622426772647
 20
-50.16056832342876
 30
0.0
 11
-32.79059124968558
 21
-50.16058204665214
 31
0.0
  0
LINE
  5
1C1
330
1F
100
AcDbEntity
  8
Default
100
AcDbLine
 10
-32.79059124968558
 20
-50.16058204665214
 30
0.0
 11
-32.79059124968558
 21
-43.57571288161913
 31
0.0
  0
LINE
  5
1C2
330
1F
100
AcDbEntity
  8
Default
100
AcDbLine
 10
-32.79059124968558
 20
-43.57571288161913
 30
0.0
 11
-32.9146890075358
 21
-43.57571288161913
 31
0.0
  0
LINE
  5
1C3
330
1F
100
AcDbEntity
  8
Default
100
AcDbLine
 10
-32.9146890075358
 20
-43.57571288161913
 30
0.0
 11
-32.9146890075358
 21
-50.16055460020539
 31
0.0
  0
LINE
  5
1C4
330
1F
100
AcDbEntity
  8
Default
100
AcDbLine
 10
-32.9146890075358
 20
-50.16055460020539
 30
0.0
 11
-33.78342297145401
 21
-50.16055460020539
 31
0.0
  0
LINE
  5
1C5
330
1F
100
AcDbEntity
  8
Default
100
AcDbLine
 10
-33.78342297145401
 20
-50.16055460020539
 30
0.0
 11
-33.78342297145401
 21
-43.57571288161913
 31
0.0
  0
LINE
  5
1C6
330
1F
100
AcDbEntity
  8
Default
100
AcDbLine
 10
-33.78342297145401
 20
-43.57571288161913
 30
0.0
 11
-33.90752072930422
 21
-43.57571288161913
 31
0.0
  0
LINE
  5
1C7
330
1F
100
AcDbEntity
  8
Default
100
AcDbLine
 10
-33.90752072930422
 20
-43.57571288161913
 30
0.0
 11
-33.90752072930422
 21
-50.16055460020539
 31
0.0
  0
LINE
  5
1C8
330
1F
100
AcDbEntity
  8
Default
100
AcDbLine
 10
-33.90752072930422
 20
-50.16055460020539
 30
0.0
 11
-34.34188771126334
 21
-50.16056832342876
 31
0.0
  0
LINE
  5
1C9
330
1F
100
AcDbEntity
  8
Default
100
AcDbLine
 10
-34.34188771126334
 20
-50.16056832342876
 30
0.0
 11
-34.77625469322244
 21
-50.16058204665214
 31
0.0
  0
LINE
  5
1CA
330
1F
100
AcDbEntity
  8
Default
100
AcDbLine
 10
-34.77625469322244
 20
-50.16058204665214
 30
0.0
 11
-34.77625469322244
 21
-43.57571288161913
 31
0.0
  0
LINE
  5
1CB
330
1F
100
AcDbEntity
  8
Default
100
AcDbLine
 10
-34.77625469322244
 20
-43.57571288161913
 30
0.0
 11
-34.90035245107266
 21
-43.57571288161913
 31
0.0
  0
LINE
  5
1CC
330
1F
100
AcDbEntity
  8
Default
100
AcDbLine
 10
-34.90035245107266
 20
-43.57571288161913
 30
0.0
 11
-34.90035245107266
 21
-50.16055460020539
 31
0.0
  0
LINE
  5
1CD
330
1F
100
AcDbEntity
  8
Default
100
AcDbLine
 10
-34.90035245107266
 20
-50.16055460020539
 30
0.0
 11
-35.76908641499087
 21
-50.16055460020539
 31
0.0
  0
LINE
  5
1CE
330
1F
100
AcDbEntity
  8
Default
100
AcDbLine
 10
-35.76908641499087
 20
-50.16055460020539
 30
0.0
 11
-35.76908641499087
 21
-43.57571288161913
 31
0.0
  0
LINE
  5
1CF
330
1F
100
AcDbEntity
  8
Default
100
AcDbLine
 10
-35.76908641499087
 20
-43.57571288161913
 30
0.0
 11
-35.89318417284109
 21
-43.57571288161913
 31
0.0
  0
LINE
  5
1D0
330
1F
100
AcDbEntity
  8
Default
100
AcDbLine
 10
-35.89318417284109
 20
-43.57571288161913
 30
0.0
 11
-35.89318417284109
 21
-50.16055460020539
 31
0.0
  0
LINE
  5
1D1
330
1F
100
AcDbEntity
  8
Default
100
AcDbLine
 10
-35.89318417284109
 20
-50.16055460020539
 30
0.0
 11
-36.3275511548002
 21
-50.16056832342876
 31
0.0
  0
LINE
  5
1D2
330
1F
100
AcDbEntity
  8
Default
100
AcDbLine
 10
-36.3275511548002
 20
-50.16056832342876
 30
0.0
 11
-36.76191813675931
 21
-50.16058204665214
 31
0.0
  0
LINE
  5
1D3
330
1F
100
AcDbEntity
  8
Default
100
AcDbLine
 10
-36.76191813675931
 20
-50.16058204665214
 30
0.0
 11
-36.76191813675931
 21
-43.57571288161913
 31
0.0
  0
LINE
  5
1D4
330
1F
100
AcDbEntity
  8
Default
100
AcDbLine
 10
-36.76191813675931
 20
-43.57571288161913
 30
0.0
 11
-36.88601589460951
 21
-43.57571288161913
 31
0.0
  0
LINE
  5
1D5
330
1F
100
AcDbEntity
  8
Default
100
AcDbLine
 10
-36.88601589460951
 20
-43.57571288161913
 30
0.0
 11
-36.88601589460951
 21
-50.16055460020539
 31
0.0
  0
LINE
  5
1D6
330
1F
100
AcDbEntity
  8
Default
100
AcDbLine
 10
-36.88601589460951
 20
-50.16055460020539
 30
0.0
 11
-37.75474985852773
 21
-50.16055460020539
 31
0.0
  0
LINE
  5
1D7
330
1F
100
AcDbEntity
  8
Default
100
AcDbLine
 10
-37.75474985852773
 20
-50.16055460020539
 30
0.0
 11
-37.75474985852773
 21
-43.57571288161913
 31
0.0
  0
LINE
  5
1D8
330
1F
100
AcDbEntity
  8
Default
100
AcDbLine
 10
-37.75474985852773
 20
-43.57571288161913
 30
0.0
 11
-37.87884761637795
 21
-43.57571288161913
 31
0.0
  0
LINE
  5
1D9
330
1F
100
AcDbEntity
  8
Default
100
AcDbLine
 10
-37.87884761637795
 20
-43.57571288161913
 30
0.0
 11
-37.87884761637795
 21
-50.16055460020539
 31
0.0
  0
LINE
  5
1DA
330
1F
100
AcDbEntity
  8
Default
100
AcDbLine
 10
-37.87884761637795
 20
-50.16055460020539
 30
0.0
 11
-38.31321459833706
 21
-50.16056832342876
 31
0.0
  0
LINE
  5
1DB
330
1F
100
AcDbEntity
  8
Default
100
AcDbLine
 10
-38.31321459833706
 20
-50.16056832342876
 30
0.0
 11
-38.74758158029617
 21
-50.16058204665214
 31
0.0
  0
LINE
  5
1DC
330
1F
100
AcDbEntity
  8
Default
100
AcDbLine
 10
-38.74758158029617
 20
-50.16058204665214
 30
0.0
 11
-38.74758158029616
 21
-43.57571288161913
 31
0.0
  0
LINE
  5
1DD
330
1F
100
AcDbEntity
  8
Default
100
AcDbLine
 10
-38.74758158029616
 20
-43.57571288161913
 30
0.0
 11
-38.87167933814638
 21
-43.57571288161913
 31
0.0
  0
LINE
  5
1DE
330
1F
100
AcDbEntity
  8
Default
100
AcDbLine
 10
-38.87167933814638
 20
-43.57571288161913
 30
0.0
 11
-38.87167933814638
 21
-50.16055460020539
 31
0.0
  0
LINE
  5
1DF
330
1F
100
AcDbEntity
  8
Default
100
AcDbLine
 10
-38.87167933814638
 20
-50.16055460020539
 30
0.0
 11
-39.7404133020646
 21
-50.16055460020539
 31
0.0
  0
LINE
  5
1E0
330
1F
100
AcDbEntity
  8
Default
100
AcDbLine
 10
-39.7404133020646
 20
-50.16055460020539
 30
0.0
 11
-39.7404133020646
 21
-43.57571288161913
 31
0.0
  0
LINE
  5
1E1
330
1F
100
AcDbEntity
  8
Default
100
AcDbLine
 10
-39.7404133020646
 20
-43.57571288161913
 30
0.0
 11
-39.86451105991481
 21
-43.57571288161913
 31
0.0
  0
LINE
  5
1E2
330
1F
100
AcDbEntity
  8
Default
100
AcDbLine
 10
-39.86451105991481
 20
-43.57571288161913
 30
0.0
 11
-39.86451105991481
 21
-50.16055460020539
 31
0.0
  0
LINE
  5
1E3
330
1F
100
AcDbEntity
  8
Default
100
AcDbLine
 10
-39.86451105991481
 20
-50.16055460020539
 30
0.0
 11
-40.29887804187392
 21
-50.16056832342876
 31
0.0
  0
LINE
  5
1E4
330
1F
100
AcDbEntity
  8
Default
100
AcDbLine
 10
-40.29887804187392
 20
-50.16056832342876
 30
0.0
 11
-40.73324502383304
 21
-50.16058204665214
 31
0.0
  0
LINE
  5
1E5
330
1F
100
AcDbEntity
  8
Default
100
AcDbLine
 10
-40.73324502383304
 20
-50.16058204665214
 30
0.0
 11
-40.73324502383302
 21
-43.57571288161913
 31
0.0
  0
LINE
  5
1E6
330
1F
100
AcDbEntity
  8
Default
100
AcDbLine
 10
-40.73324502383302
 20
-43.57571288161913
 30
0.0
 11
-40.85734278168324
 21
-43.57571288161913
 31
0.0
  0
LINE
  5
1E7
330
1F
100
AcDbEntity
  8
Default
100
AcDbLine
 10
-40.85734278168324
 20
-43.57571288161913
 30
0.0
 11
-40.85734278168324
 21
-50.16055460020539
 31
0.0
  0
LINE
  5
1E8
330
1F
100
AcDbEntity
  8
Default
100
AcDbLine
 10
-40.85734278168324
 20
-50.16055460020539
 30
0.0
 11
-41.72607674560145
 21
-50.16055460020539
 31
0.0
  0
LINE
  5
1E9
330
1F
100
AcDbEntity
  8
Default
100
AcDbLine
 10
-41.72607674560145
 20
-50.16055460020539
 30
0.0
 11
-41.72607674560145
 21
-43.57571288161913
 31
0.0
  0
LINE
  5
1EA
330
1F
100
AcDbEntity
  8
Default
100
AcDbLine
 10
-41.72607674560145
 20
-43.57571288161913
 30
0.0
 11
-41.85017450345167
 21
-43.57571288161913
 31
0.0
  0
LINE
  5
1EB
330
1F
100
AcDbEntity
  8
Default
100
AcDbLine
 10
-41.85017450345167
 20
-43.57571288161913
 30
0.0
 11
-41.85017450345167
 21
-50.16055460020539
 31
0.0
  0
LINE
  5
1EC
330
1F
100
AcDbEntity
  8
Default
100
AcDbLine
 10
-41.85017450345167
 20
-50.16055460020539
 30
0.0
 11
-42.28454148541078
 21
-50.16056832342876
 31
0.0
  0
LINE
  5
1ED
330
1F
100
AcDbEntity
  8
Default
100
AcDbLine
 10
-42.28454148541078
 20
-50.16056832342876
 30
0.0
 11
-42.71890846736989
 21
-50.16058204665214
 31
0.0
  0
LINE
  5
1EE
330
1F
100
AcDbEntity
  8
Default
100
AcDbLine
 10
-42.71890846736989
 20
-50.16058204665214
 30
0.0
 11
-42.71890846736989
 21
-43.57571288161913
 31
0.0
  0
LINE
  5
1EF
330
1F
100
AcDbEntity
  8
Default
100
AcDbLine
 10
-42.71890846736989
 20
-43.57571288161913
 30
0.0
 11
-42.8430062252201
 21
-43.57571288161913
 31
0.0
  0
LINE
  5
1F0
330
1F
100
AcDbEntity
  8
Default
100
AcDbLine
 10
-42.8430062252201
 20
-43.57571288161913
 30
0.0
 11
-42.8430062252201
 21
-50.16055460020539
 31
0.0
  0
LINE
  5
1F1
330
1F
100
AcDbEntity
  8
Default
100
AcDbLine
 10
-42.8430062252201
 20
-50.16055460020539
 30
0.0
 11
-43.71174018913832
 21
-50.16055460020539
 31
0.0
  0
LINE
  5
1F2
330
1F
100
AcDbEntity
  8
Default
100
AcDbLine
 10
-43.71174018913832
 20
-50.16055460020539
 30
0.0
 11
-43.71174018913832
 21
-43.57571288161913
 31
0.0
  0
LINE
  5
1F3
330
1F
100
AcDbEntity
  8
Default
100
AcDbLine
 10
-43.71174018913832
 20
-43.57571288161913
 30
0.0
 11
-43.83583794698853
 21
-43.57571288161913
 31
0.0
  0
LINE
  5
1F4
330
1F
100
AcDbEntity
  8
Default
100
AcDbLine
 10
-43.83583794698853
 20
-43.57571288161913
 30
0.0
 11
-43.83583794698853
 21
-50.16055460020539
 31
0.0
  0
LINE
  5
1F5
330
1F
100
AcDbEntity
  8
Default
100
AcDbLine
 10
-43.83583794698853
 20
-50.16055460020539
 30
0.0
 11
-44.27020492894765
 21
-50.16056832342876
 31
0.0
  0
LINE
  5
1F6
330
1F
100
AcDbEntity
  8
Default
100
AcDbLine
 10
-44.27020492894765
 20
-50.16056832342876
 30
0.0
 11
-44.70457191090675
 21
-50.16058204665214
 31
0.0
  0
LINE
  5
1F7
330
1F
100
AcDbEntity
  8
Default
100
AcDbLine
 10
-44.70457191090675
 20
-50.16058204665214
 30
0.0
 11
-44.70457191090675
 21
-43.57571288161913
 31
0.0
  0
LINE
  5
1F8
330
1F
100
AcDbEntity
  8
Default
100
AcDbLine
 10
-44.70457191090675
 20
-43.57571288161913
 30
0.0
 11
-44.82866966875697
 21
-43.57571288161913
 31
0.0
  0
LINE
  5
1F9
330
1F
100
AcDbEntity
  8
Default
100
AcDbLine
 10
-44.82866966875697
 20
-43.57571288161913
 30
0.0
 11
-44.82866966875697
 21
-50.16055460020539
 31
0.0
  0
LINE
  5
1FA
330
1F
100
AcDbEntity
  8
Default
100
AcDbLine
 10
-44.82866966875697
 20
-50.16055460020539
 30
0.0
 11
-45.69740363267518
 21
-50.16055460020539
 31
0.0
  0
LINE
  5
1FB
330
1F
100
AcDbEntity
  8
Default
100
AcDbLine
 10
-45.69740363267518
 20
-50.16055460020539
 30
0.0
 11
-45.69740363267518
 21
-43.57571288161913
 31
0.0
  0
LINE
  5
1FC
330
1F
100
AcDbEntity
  8
Default
100
AcDbLine
 10
-45.69740363267518
 20
-43.57571288161913
 30
0.0
 11
-45.8215013905254
 21
-43.57571288161913
 31
0.0
  0
LINE
  5
1FD
330
1F
100
AcDbEntity
  8
Default
100
AcDbLine
 10
-45.8215013905254
 20
-43.57571288161913
 30
0.0
 11
-45.8215013905254
 21
-50.16055460020539
 31
0.0
  0
LINE
  5
1FE
330
1F
100
AcDbEntity
  8
Default
100
AcDbLine
 10
-45.8215013905254
 20
-50.16055460020539
 30
0.0
 11
-46.25586837248451
 21
-50.16056832342876
 31
0.0
  0
LINE
  5
1FF
330
1F
100
AcDbEntity
  8
Default
100
AcDbLine
 10
-46.25586837248451
 20
-50.16056832342876
 30
0.0
 11
-46.69023535444362
 21
-50.16058204665214
 31
0.0
  0
LINE
  5
200
330
1F
100
AcDbEntity
  8
Default
100
AcDbLine
 10
-46.69023535444362
 20
-50.16058204665214
 30
0.0
 11
-46.69023535444361
 21
-43.57571288161913
 31
0.0
  0
LINE
  5
201
330
1F
100
AcDbEntity
  8
Default
100
AcDbLine
 10
-46.69023535444361
 20
-43.57571288161913
 30
0.0
 11
-46.81433311229382
 21
-43.57571288161913
 31
0.0
  0
LINE
  5
202
330
1F
100
AcDbEntity
  8
Default
100
AcDbLine
 10
-46.81433311229382
 20
-43.57571288161913
 30
0.0
 11
-46.81433311229382
 21
-50.16055460020539
 31
0.0
  0
LINE
  5
203
330
1F
100
AcDbEntity
  8
Default
100
AcDbLine
 10
-46.81433311229382
 20
-50.16055460020539
 30
0.0
 11
-47.68306707621204
 21
-50.16055460020539
 31
0.0
  0
LINE
  5
204
330
1F
100
AcDbEntity
  8
Default
100
AcDbLine
 10
-47.68306707621204
 20
-50.16055460020539
 30
0.0
 11
-47.68306707621204
 21
-43.57571288161913
 31
0.0
  0
LINE
  5
205
330
1F
100
AcDbEntity
  8
Default
100
AcDbLine
 10
-47.68306707621204
 20
-43.57571288161913
 30
0.0
 11
-47.80716483406226
 21
-43.57571288161913
 31
0.0
  0
LINE
  5
206
330
1F
100
AcDbEntity
  8
Default
100
AcDbLine
 10
-47.80716483406226
 20
-43.57571288161913
 30
0.0
 11
-47.80716483406226
 21
-50.16055460020539
 31
0.0
  0
LINE
  5
207
330
1F
100
AcDbEntity
  8
Default
100
AcDbLine
 10
-47.80716483406226
 20
-50.16055460020539
 30
0.0
 11
-48.24153181602137
 21
-50.16056832342876
 31
0.0
  0
LINE
  5
208
330
1F
100
AcDbEntity
  8
Default
100
AcDbLine
 10
-48.24153181602137
 20
-50.16056832342876
 30
0.0
 11
-48.67589879798048
 21
-50.16058204665214
 31
0.0
  0
LINE
  5
209
330
1F
100
AcDbEntity
  8
Default
100
AcDbLine
 10
-48.67589879798048
 20
-50.16058204665214
 30
0.0
 11
-48.67589879798047
 21
-43.57571288161913
 31
0.0
  0
LINE
  5
20A
330
1F
100
AcDbEntity
  8
Default
100
AcDbLine
 10
-48.67589879798047
 20
-43.57571288161913
 30
0.0
 11
-48.79999655583069
 21
-43.57571288161913
 31
0.0
  0
LINE
  5
20B
330
1F
100
AcDbEntity
  8
Default
100
AcDbLine
 10
-48.79999655583069
 20
-43.57571288161913
 30
0.0
 11
-48.79999655583069
 21
-50.16055460020539
 31
0.0
  0
LINE
  5
20C
330
1F
100
AcDbEntity
  8
Default
100
AcDbLine
 10
-48.79999655583069
 20
-50.16055460020539
 30
0.0
 11
-49.66873051974891
 21
-50.16055460020539
 31
0.0
  0
LINE
  5
20D
330
1F
100
AcDbEntity
  8
Default
100
AcDbLine
 10
-49.66873051974891
 20
-50.16055460020539
 30
0.0
 11
-49.66873051974891
 21
-43.57571288161913
 31
0.0
  0
LINE
  5
20E
330
1F
100
AcDbEntity
  8
Default
100
AcDbLine
 10
-49.66873051974891
 20
-43.57571288161913
 30
0.0
 11
-49.79282827759912
 21
-43.57571288161913
 31
0.0
  0
LINE
  5
20F
330
1F
100
AcDbEntity
  8
Default
100
AcDbLine
 10
-49.79282827759912
 20
-43.57571288161913
 30
0.0
 11
-49.79282827759912
 21
-50.16055460020539
 31
0.0
  0
LINE
  5
210
330
1F
100
AcDbEntity
  8
Default
100
AcDbLine
 10
-49.79282827759912
 20
-50.16055460020539
 30
0.0
 11
-50.22719525955823
 21
-50.16056832342876
 31
0.0
  0
LINE
  5
211
330
1F
100
AcDbEntity
  8
Default
100
AcDbLine
 10
-50.22719525955823
 20
-50.16056832342876
 30
0.0
 11
-50.66156224151734
 21
-50.16058204665214
 31
0.0
  0
LINE
  5
212
330
1F
100
AcDbEntity
  8
Default
100
AcDbLine
 10
-50.66156224151734
 20
-50.16058204665214
 30
0.0
 11
-50.66156224151733
 21
-43.57571288161913
 31
0.0
  0
LINE
  5
213
330
1F
100
AcDbEntity
  8
Default
100
AcDbLine
 10
-50.66156224151733
 20
-43.57571288161913
 30
0.0
 11
-50.78565999936755
 21
-43.57571288161913
 31
0.0
  0
LINE
  5
214
330
1F
100
AcDbEntity
  8
Default
100
AcDbLine
 10
-50.78565999936755
 20
-43.57571288161913
 30
0.0
 11
-50.78565999936755
 21
-50.16055460020539
 31
0.0
  0
LINE
  5
215
330
1F
100
AcDbEntity
  8
Default
100
AcDbLine
 10
-50.78565999936755
 20
-50.16055460020539
 30
0.0
 11
-51.65439396328576
 21
-50.16055460020539
 31
0.0
  0
LINE
  5
216
330
1F
100
AcDbEntity
  8
Default
100
AcDbLine
 10
-51.65439396328576
 20
-50.16055460020539
 30
0.0
 11
-51.65439396328576
 21
-43.57571288161913
 31
0.0
  0
LINE
  5
217
330
1F
100
AcDbEntity
  8
Default
100
AcDbLine
 10
-51.65439396328576
 20
-43.57571288161913
 30
0.0
 11
-51.77849172113598
 21
-43.57571288161913
 31
0.0
  0
LINE
  5
218
330
1F
100
AcDbEntity
  8
Default
100
AcDbLine
 10
-51.77849172113598
 20
-43.57571288161913
 30
0.0
 11
-51.77849172113598
 21
-50.16055460020539
 31
0.0
  0
LINE
  5
219
330
1F
100
AcDbEntity
  8
Default
100
AcDbLine
 10
-51.77849172113598
 20
-50.16055460020539
 30
0.0
 11
-52.21285870309509
 21
-50.16056832342876
 31
0.0
  0
LINE
  5
21A
330
1F
100
AcDbEntity
  8
Default
100
AcDbLine
 10
-52.21285870309509
 20
-50.16056832342876
 30
0.0
 11
-52.6472256850542
 21
-50.16058204665214
 31
0.0
  0
LINE
  5
21B
330
1F
100
AcDbEntity
  8
Default
100
AcDbLine
 10
-52.6472256850542
 20
-50.16058204665214
 30
0.0
 11
-52.6472256850542
 21
-43.57571288161913
 31
0.0
  0
LINE
  5
21C
330
1F
100
AcDbEntity
  8
Default
100
AcDbLine
 10
-52.6472256850542
 20
-43.57571288161913
 30
0.0
 11
-52.77132344290441
 21
-43.57571288161913
 31
0.0
  0
LINE
  5
21D
330
1F
100
AcDbEntity
  8
Default
100
AcDbLine
 10
-52.77132344290441
 20
-43.57571288161913
 30
0.0
 11
-52.77132344290441
 21
-50.16055460020539
 31
0.0
  0
LINE
  5
21E
330
1F
100
AcDbEntity
  8
Default
100
AcDbLine
 10
-52.77132344290441
 20
-50.16055460020539
 30
0.0
 11
-53.64005740682263
 21
-50.16055460020539
 31
0.0
  0
LINE
  5
21F
330
1F
100
AcDbEntity
  8
Default
100
AcDbLine
 10
-53.64005740682263
 20
-50.16055460020539
 30
0.0
 11
-53.64005740682263
 21
-43.57571288161913
 31
0.0
  0
LINE
  5
220
330
1F
100
AcDbEntity
  8
Default
100
AcDbLine
 10
-53.64005740682263
 20
-43.57571288161913
 30
0.0
 11
-53.76415516467284
 21
-43.57571288161913
 31
0.0
  0
LINE
  5
221
330
1F
100
AcDbEntity
  8
Default
100
AcDbLine
 10
-53.76415516467284
 20
-43.57571288161913
 30
0.0
 11
-53.76415516467284
 21
-50.16055460020539
 31
0.0
  0
LINE
  5
222
330
1F
100
AcDbEntity
  8
Default
100
AcDbLine
 10
-53.76415516467284
 20
-50.16055460020539
 30
0.0
 11
-54.19852214663196
 21
-50.16056832342876
 31
0.0
  0
LINE
  5
223
330
1F
100
AcDbEntity
  8
Default
100
AcDbLine
 10
-54.19852214663196
 20
-50.16056832342876
 30
0.0
 11
-54.63288912859106
 21
-50.16058204665214
 31
0.0
  0
LINE
  5
224
330
1F
100
AcDbEntity
  8
Default
100
AcDbLine
 10
-54.63288912859106
 20
-50.16058204665214
 30
0.0
 11
-54.63288912859106
 21
-43.57571288161913
 31
0.0
  0
LINE
  5
225
330
1F
100
AcDbEntity
  8
Default
100
AcDbLine
 10
-54.63288912859106
 20
-43.57571288161913
 30
0.0
 11
-54.75698688644127
 21
-43.57571288161913
 31
0.0
  0
LINE
  5
226
330
1F
100
AcDbEntity
  8
Default
100
AcDbLine
 10
-54.75698688644127
 20
-43.57571288161913
 30
0.0
 11
-54.75698688644127
 21
-50.16055460020539
 31
0.0
  0
LINE
  5
227
330
1F
100
AcDbEntity
  8
Default
100
AcDbLine
 10
-54.75698688644127
 20
-50.16055460020539
 30
0.0
 11
-55.62572085035949
 21
-50.16055460020539
 31
0.0
  0
LINE
  5
228
330
1F
100
AcDbEntity
  8
Default
100
AcDbLine
 10
-55.62572085035949
 20
-50.16055460020539
 30
0.0
 11
-55.62572085035949
 21
-43.57571288161913
 31
0.0
  0
LINE
  5
229
330
1F
100
AcDbEntity
  8
Default
100
AcDbLine
 10
-55.62572085035949
 20
-43.57571288161913
 30
0.0
 11
-55.7498186082097
 21
-43.57571288161913
 31
0.0
  0
LINE
  5
22A
330
1F
100
AcDbEntity
  8
Default
100
AcDbLine
 10
-55.7498186082097
 20
-43.57571288161913
 30
0.0
 11
-55.7498186082097
 21
-50.16055460020539
 31
0.0
  0
LINE
  5
22B
330
1F
100
AcDbEntity
  8
Default
100
AcDbLine
 10
-55.7498186082097
 20
-50.16055460020539
 30
0.0
 11
-56.18418559016882
 21
-50.16056832342876
 31
0.0
  0
LINE
  5
22C
330
1F
100
AcDbEntity
  8
Default
100
AcDbLine
 10
-56.18418559016882
 20
-50.16056832342876
 30
0.0
 11
-56.61855257212792
 21
-50.16058204665214
 31
0.0
  0
LINE
  5
22D
330
1F
100
AcDbEntity
  8
Default
100
AcDbLine
 10
-56.61855257212792
 20
-50.16058204665214
 30
0.0
 11
-56.61855257212792
 21
-43.57571288161913
 31
0.0
  0
LINE
  5
22E
330
1F
100
AcDbEntity
  8
Default
100
AcDbLine
 10
-56.61855257212792
 20
-43.57571288161913
 30
0.0
 11
-56.74265032997813
 21
-43.57571288161913
 31
0.0
  0
LINE
  5
22F
330
1F
100
AcDbEntity
  8
Default
100
AcDbLine
 10
-56.74265032997813
 20
-43.57571288161913
 30
0.0
 11
-56.74265032997813
 21
-50.16055460020539
 31
0.0
  0
LINE
  5
230
330
1F
100
AcDbEntity
  8
Default
100
AcDbLine
 10
-56.74265032997813
 20
-50.16055460020539
 30
0.0
 11
-57.61138429389635
 21
-50.16055460020539
 31
0.0
  0
LINE
  5
231
330
1F
100
AcDbEntity
  8
Default
100
AcDbLine
 10
-57.61138429389635
 20
-50.16055460020539
 30
0.0
 11
-57.61138429389635
 21
-43.57571288161913
 31
0.0
  0
LINE
  5
232
330
1F
100
AcDbEntity
  8
Default
100
AcDbLine
 10
-57.61138429389635
 20
-43.57571288161913
 30
0.0
 11
-57.73548205174657
 21
-43.57571288161913
 31
0.0
  0
LINE
  5
233
330
1F
100
AcDbEntity
  8
Default
100
AcDbLine
 10
-57.73548205174657
 20
-43.57571288161913
 30
0.0
 11
-57.73548205174657
 21
-50.16055460020539
 31
0.0
  0
LINE
  5
234
330
1F
100
AcDbEntity
  8
Default
100
AcDbLine
 10
-57.73548205174657
 20
-50.16055460020539
 30
0.0
 11
-58.16984903370567
 21
-50.16056832342876
 31
0.0
  0
LINE
  5
235
330
1F
100
AcDbEntity
  8
Default
100
AcDbLine
 10
-58.16984903370567
 20
-50.16056832342876
 30
0.0
 11
-58.60421601566479
 21
-50.16058204665214
 31
0.0
  0
LINE
  5
236
330
1F
100
AcDbEntity
  8
Default
100
AcDbLine
 10
-58.60421601566479
 20
-50.16058204665214
 30
0.0
 11
-58.60421601566478
 21
-43.57571288161913
 31
0.0
  0
LINE
  5
237
330
1F
100
AcDbEntity
  8
Default
100
AcDbLine
 10
-58.60421601566478
 20
-43.57571288161913
 30
0.0
 11
-58.728313773515
 21
-43.57571288161913
 31
0.0
  0
LINE
  5
238
330
1F
100
AcDbEntity
  8
Default
100
AcDbLine
 10
-58.728313773515
 20
-43.57571288161913
 30
0.0
 11
-58.728313773515
 21
-50.16055460020539
 31
0.0
  0
LINE
  5
239
330
1F
100
AcDbEntity
  8
Default
100
AcDbLine
 10
-58.728313773515
 20
-50.16055460020539
 30
0.0
 11
-59.59704773743321
 21
-50.16055460020539
 31
0.0
  0
LINE
  5
23A
330
1F
100
AcDbEntity
  8
Default
100
AcDbLine
 10
-59.59704773743321
 20
-50.16055460020539
 30
0.0
 11
-59.59704773743321
 21
-43.57571288161913
 31
0.0
  0
LINE
  5
23B
330
1F
100
AcDbEntity
  8
Default
100
AcDbLine
 10
-59.59704773743321
 20
-43.57571288161913
 30
0.0
 11
-59.72114549528342
 21
-43.57571288161913
 31
0.0
  0
LINE
  5
23C
330
1F
100
AcDbEntity
  8
Default
100
AcDbLine
 10
-59.72114549528342
 20
-43.57571288161913
 30
0.0
 11
-59.72114549528342
 21
-50.16055460020539
 31
0.0
  0
LINE
  5
23D
330
1F
100
AcDbEntity
  8
Default
100
AcDbLine
 10
-59.72114549528342
 20
-50.16055460020539
 30
0.0
 11
-60.15551247724254
 21
-50.16056832342876
 31
0.0
  0
LINE
  5
23E
330
1F
100
AcDbEntity
  8
Default
100
AcDbLine
 10
-60.15551247724254
 20
-50.16056832342876
 30
0.0
 11
-60.58987945920165
 21
-50.16058204665214
 31
0.0
  0
LINE
  5
23F
330
1F
100
AcDbEntity
  8
Default
100
AcDbLine
 10
-60.58987945920165
 20
-50.16058204665214
 30
0.0
 11
-60.58987945920164
 21
-43.57571288161913
 31
0.0
  0
LINE
  5
240
330
1F
100
AcDbEntity
  8
Default
100
AcDbLine
 10
-60.58987945920164
 20
-43.57571288161913
 30
0.0
 11
-60.71397721705186
 21
-43.57571288161913
 31
0.0
  0
LINE
  5
241
330
1F
100
AcDbEntity
  8
Default
100
AcDbLine
 10
-60.71397721705186
 20
-43.57571288161913
 30
0.0
 11
-60.71397721705186
 21
-50.16055460020539
 31
0.0
  0
LINE
  5
242
330
1F
100
AcDbEntity
  8
Default
100
AcDbLine
 10
-60.71397721705186
 20
-50.16055460020539
 30
0.0
 11
-61.58271118097007
 21
-50.16055460020539
 31
0.0
  0
LINE
  5
243
330
1F
100
AcDbEntity
  8
Default
100
AcDbLine
 10
-61.58271118097007
 20
-50.16055460020539
 30
0.0
 11
-61.58271118097007
 21
-43.57571288161913
 31
0.0
  0
LINE
  5
244
330
1F
100
AcDbEntity
  8
Default
100
AcDbLine
 10
-61.58271118097007
 20
-43.57571288161913
 30
0.0
 11
-61.70680893882029
 21
-43.57571288161913
 31
0.0
  0
LINE
  5
245
330
1F
100
AcDbEntity
  8
Default
100
AcDbLine
 10
-61.70680893882029
 20
-43.57571288161913
 30
0.0
 11
-61.70680893882029
 21
-50.16055460020539
 31
0.0
  0
LINE
  5
246
330
1F
100
AcDbEntity
  8
Default
100
AcDbLine
 10
-61.70680893882029
 20
-50.16055460020539
 30
0.0
 11
-62.1411759207794
 21
-50.16056832342876
 31
0.0
  0
LINE
  5
247
330
1F
100
AcDbEntity
  8
Default
100
AcDbLine
 10
-62.1411759207794
 20
-50.16056832342876
 30
0.0
 11
-62.5755429027385
 21
-50.16058204665214
 31
0.0
  0
LINE
  5
248
330
1F
100
AcDbEntity
  8
Default
100
AcDbLine
 10
-62.5755429027385
 20
-50.16058204665214
 30
0.0
 11
-62.5755429027385
 21
-43.57571288161913
 31
0.0
  0
LINE
  5
249
330
1F
100
AcDbEntity
  8
Default
100
AcDbLine
 10
-62.5755429027385
 20
-43.57571288161913
 30
0.0
 11
-62.69964066058872
 21
-43.57571288161913
 31
0.0
  0
LINE
  5
24A
330
1F
100
AcDbEntity
  8
Default
100
AcDbLine
 10
-62.69964066058872
 20
-43.57571288161913
 30
0.0
 11
-62.69964066058872
 21
-50.16055460020539
 31
0.0
  0
LINE
  5
24B
330
1F
100
AcDbEntity
  8
Default
100
AcDbLine
 10
-62.69964066058872
 20
-50.16055460020539
 30
0.0
 11
-63.56837462450693
 21
-50.16055460020539
 31
0.0
  0
LINE
  5
24C
330
1F
100
AcDbEntity
  8
Default
100
AcDbLine
 10
-63.56837462450693
 20
-50.16055460020539
 30
0.0
 11
-63.56837462450693
 21
-43.57571288161913
 31
0.0
  0
LINE
  5
24D
330
1F
100
AcDbEntity
  8
Default
100
AcDbLine
 10
-63.56837462450693
 20
-43.57571288161913
 30
0.0
 11
-63.69247238235715
 21
-43.57571288161913
 31
0.0
  0
LINE
  5
24E
330
1F
100
AcDbEntity
  8
Default
100
AcDbLine
 10
-63.69247238235715
 20
-43.57571288161913
 30
0.0
 11
-63.69247238235715
 21
-50.16055460020539
 31
0.0
  0
LINE
  5
24F
330
1F
100
AcDbEntity
  8
Default
100
AcDbLine
 10
-63.69247238235715
 20
-50.16055460020539
 30
0.0
 11
-64.12683936431627
 21
-50.16056832342876
 31
0.0
  0
LINE
  5
250
330
1F
100
AcDbEntity
  8
Default
100
AcDbLine
 10
-64.12683936431627
 20
-50.16056832342876
 30
0.0
 11
-64.56120634627538
 21
-50.16058204665214
 31
0.0
  0
LINE
  5
251
330
1F
100
AcDbEntity
  8
Default
100
AcDbLine
 10
-64.56120634627538
 20
-50.16058204665214
 30
0.0
 11
-64.56120634627538
 21
-43.57571288161913
 31
0.0
  0
LINE
  5
252
330
1F
100
AcDbEntity
  8
Default
100
AcDbLine
 10
-64.56120634627538
 20
-43.57571288161913
 30
0.0
 11
-64.68530410412559
 21
-43.57571288161913
 31
0.0
  0
LINE
  5
253
330
1F
100
AcDbEntity
  8
Default
100
AcDbLine
 10
-64.68530410412559
 20
-43.57571288161913
 30
0.0
 11
-64.68530410412559
 21
-50.16055460020539
 31
0.0
  0
LINE
  5
254
330
1F
100
AcDbEntity
  8
Default
100
AcDbLine
 10
-64.68530410412559
 20
-50.16055460020539
 30
0.0
 11
-65.55403806804381
 21
-50.16055460020539
 31
0.0
  0
LINE
  5
255
330
1F
100
AcDbEntity
  8
Default
100
AcDbLine
 10
-65.55403806804381
 20
-50.16055460020539
 30
0.0
 11
-65.55403806804381
 21
-43.57571288161913
 31
0.0
  0
LINE
  5
256
330
1F
100
AcDbEntity
  8
Default
100
AcDbLine
 10
-65.55403806804381
 20
-43.57571288161913
 30
0.0
 11
-65.67813582589402
 21
-43.57571288161913
 31
0.0
  0
LINE
  5
257
330
1F
100
AcDbEntity
  8
Default
100
AcDbLine
 10
-65.67813582589402
 20
-43.57571288161913
 30
0.0
 11
-65.67813582589402
 21
-50.16055460020539
 31
0.0
  0
LINE
  5
258
330
1F
100
AcDbEntity
  8
Default
100
AcDbLine
 10
-65.67813582589402
 20
-50.16055460020539
 30
0.0
 11
-66.11250280785313
 21
-50.16056832342876
 31
0.0
  0
LINE
  5
259
330
1F
100
AcDbEntity
  8
Default
100
AcDbLine
 10
-66.11250280785313
 20
-50.16056832342876
 30
0.0
 11
-66.54686978981223
 21
-50.16058204665214
 31
0.0
  0
LINE
  5
25A
330
1F
100
AcDbEntity
  8
Default
100
AcDbLine
 10
-66.54686978981223
 20
-50.16058204665214
 30
0.0
 11
-66.54686978981223
 21
-43.57571288161913
 31
0.0
  0
LINE
  5
25B
330
1F
100
AcDbEntity
  8
Default
100
AcDbLine
 10
-66.54686978981223
 20
-43.57571288161913
 30
0.0
 11
-66.67096754766246
 21
-43.57571288161913
 31
0.0
  0
LINE
  5
25C
330
1F
100
AcDbEntity
  8
Default
100
AcDbLine
 10
-66.67096754766246
 20
-43.57571288161913
 30
0.0
 11
-66.67096754766246
 21
-50.16055460020539
 31
0.0
  0
LINE
  5
25D
330
1F
100
AcDbEntity
  8
Default
100
AcDbLine
 10
-66.67096754766246
 20
-50.16055460020539
 30
0.0
 11
-67.53970151158066
 21
-50.16055460020539
 31
0.0
  0
LINE
  5
25E
330
1F
100
AcDbEntity
  8
Default
100
AcDbLine
 10
-67.53970151158066
 20
-50.16055460020539
 30
0.0
 11
-67.53970151158066
 21
-43.57571288161913
 31
0.0
  0
LINE
  5
25F
330
1F
100
AcDbEntity
  8
Default
100
AcDbLine
 10
-67.53970151158066
 20
-43.57571288161913
 30
0.0
 11
-67.66379926943088
 21
-43.57571288161913
 31
0.0
  0
LINE
  5
260
330
1F
100
AcDbEntity
  8
Default
100
AcDbLine
 10
-67.66379926943088
 20
-43.57571288161913
 30
0.0
 11
-67.66379926943088
 21
-50.16055460020539
 31
0.0
  0
LINE
  5
261
330
1F
100
AcDbEntity
  8
Default
100
AcDbLine
 10
-67.66379926943088
 20
-50.16055460020539
 30
0.0
 11
-68.09816625139
 21
-50.16056832342876
 31
0.0
  0
POLYLINE
  5
262
330
1F
100
AcDbEntity
  8
Default
100
AcDb2dPolyline
 66
     1
 10
0.0
 20
0.0
 30
0.0
  0
VERTEX
  5
263
330
262
100
AcDbEntity
  8
Default
100
AcDbVertex
100
AcDb2dVertex
 10
-68.09816625139
 20
-50.16056832342876
 30
0.0
  0
VERTEX
  5
264
330
262
100
AcDbEntity
  8
Default
100
AcDbVertex
100
AcDb2dVertex
 10
-68.09816625139
 20
-30.40601572122323
 30
0.0
  0
SEQEND
  5
265
330
262
100
AcDbEntity
  8
Default
  0
LINE
  5
266
330
1F
100
AcDbEntity
  8
Default
100
AcDbLine
 10
-68.09816625139
 20
-30.40601572122323
 30
0.0
 11
-67.66379926943088
 21
-30.4060294444466
 31
0.0
  0
LINE
  5
267
330
1F
100
AcDbEntity
  8
Default
100
AcDbLine
 10
-67.66379926943088
 20
-30.4060294444466
 30
0.0
 11
-67.66379926943088
 21
-36.99087116303286
 31
0.0
  0
LINE
  5
268
330
1F
100
AcDbEntity
  8
Default
100
AcDbLine
 10
-67.66379926943088
 20
-36.99087116303286
 30
0.0
 11
-67.53970151158066
 21
-36.99087116303286
 31
0.0
  0
LINE
  5
269
330
1F
100
AcDbEntity
  8
Default
100
AcDbLine
 10
-67.53970151158066
 20
-36.99087116303286
 30
0.0
 11
-67.53970151158066
 21
-30.4060294444466
 31
0.0
  0
LINE
  5
26A
330
1F
100
AcDbEntity
  8
Default
100
AcDbLine
 10
-67.53970151158066
 20
-30.4060294444466
 30
0.0
 11
-66.67096754766246
 21
-30.4060294444466
 31
0.0
  0
LINE
  5
26B
330
1F
100
AcDbEntity
  8
Default
100
AcDbLine
 10
-66.67096754766246
 20
-30.4060294444466
 30
0.0
 11
-66.67096754766246
 21
-36.99087116303286
 31
0.0
  0
LINE
  5
26C
330
1F
100
AcDbEntity
  8
Default
100
AcDbLine
 10
-66.67096754766246
 20
-36.99087116303286
 30
0.0
 11
-66.54686978981223
 21
-36.99087116303286
 31
0.0
  0
LINE
  5
26D
330
1F
100
AcDbEntity
  8
Default
100
AcDbLine
 10
-66.54686978981223
 20
-36.99087116303286
 30
0.0
 11
-66.54686978981223
 21
-30.40600199799984
 31
0.0
  0
LINE
  5
26E
330
1F
100
AcDbEntity
  8
Default
100
AcDbLine
 10
-66.54686978981223
 20
-30.40600199799984
 30
0.0
 11
-66.11250280785313
 21
-30.40601572122323
 31
0.0
  0
LINE
  5
26F
330
1F
100
AcDbEntity
  8
Default
100
AcDbLine
 10
-66.11250280785313
 20
-30.40601572122323
 30
0.0
 11
-65.67813582589402
 21
-30.4060294444466
 31
0.0
  0
LINE
  5
270
330
1F
100
AcDbEntity
  8
Default
100
AcDbLine
 10
-65.67813582589402
 20
-30.4060294444466
 30
0.0
 11
-65.67813582589402
 21
-36.99087116303286
 31
0.0
  0
LINE
  5
271
330
1F
100
AcDbEntity
  8
Default
100
AcDbLine
 10
-65.67813582589402
 20
-36.99087116303286
 30
0.0
 11
-65.55403806804381
 21
-36.99087116303286
 31
0.0
  0
LINE
  5
272
330
1F
100
AcDbEntity
  8
Default
100
AcDbLine
 10
-65.55403806804381
 20
-36.99087116303286
 30
0.0
 11
-65.55403806804381
 21
-30.4060294444466
 31
0.0
  0
LINE
  5
273
330
1F
100
AcDbEntity
  8
Default
100
AcDbLine
 10
-65.55403806804381
 20
-30.4060294444466
 30
0.0
 11
-64.68530410412559
 21
-30.4060294444466
 31
0.0
  0
LINE
  5
274
330
1F
100
AcDbEntity
  8
Default
100
AcDbLine
 10
-64.68530410412559
 20
-30.4060294444466
 30
0.0
 11
-64.68530410412559
 21
-36.99087116303286
 31
0.0
  0
LINE
  5
275
330
1F
100
AcDbEntity
  8
Default
100
AcDbLine
 10
-64.68530410412559
 20
-36.99087116303286
 30
0.0
 11
-64.56120634627538
 21
-36.99087116303286
 31
0.0
  0
LINE
  5
276
330
1F
100
AcDbEntity
  8
Default
100
AcDbLine
 10
-64.56120634627538
 20
-36.99087116303286
 30
0.0
 11
-64.56120634627538
 21
-30.40600199799984
 31
0.0
  0
LINE
  5
277
330
1F
100
AcDbEntity
  8
Default
100
AcDbLine
 10
-64.56120634627538
 20
-30.40600199799984
 30
0.0
 11
-64.12683936431627
 21
-30.40601572122323
 31
0.0
  0
LINE
  5
278
330
1F
100
AcDbEntity
  8
Default
100
AcDbLine
 10
-64.12683936431627
 20
-30.40601572122323
 30
0.0
 11
-63.69247238235715
 21
-30.4060294444466
 31
0.0
  0
LINE
  5
279
330
1F
100
AcDbEntity
  8
Default
100
AcDbLine
 10
-63.69247238235715
 20
-30.4060294444466
 30
0.0
 11
-63.69247238235715
 21
-36.99087116303286
 31
0.0
  0
LINE
  5
27A
330
1F
100
AcDbEntity
  8
Default
100
AcDbLine
 10
-63.69247238235715
 20
-36.99087116303286
 30
0.0
 11
-63.56837462450693
 21
-36.99087116303286
 31
0.0
  0
LINE
  5
27B
330
1F
100
AcDbEntity
  8
Default
100
AcDbLine
 10
-63.56837462450693
 20
-36.99087116303286
 30
0.0
 11
-63.56837462450693
 21
-30.4060294444466
 31
0.0
  0
LINE
  5
27C
330
1F
100
AcDbEntity
  8
Default
100
AcDbLine
 10
-63.56837462450693
 20
-30.4060294444466
 30
0.0
 11
-62.69964066058872
 21
-30.4060294444466
 31
0.0
  0
LINE
  5
27D
330
1F
100
AcDbEntity
  8
Default
100
AcDbLine
 10
-62.69964066058872
 20
-30.4060294444466
 30
0.0
 11
-62.69964066058872
 21
-36.99087116303286
 31
0.0
  0
LINE
  5
27E
330
1F
100
AcDbEntity
  8
Default
100
AcDbLine
 10
-62.69964066058872
 20
-36.99087116303286
 30
0.0
 11
-62.5755429027385
 21
-36.99087116303286
 31
0.0
  0
LINE
  5
27F
330
1F
100
AcDbEntity
  8
Default
100
AcDbLine
 10
-62.5755429027385
 20
-36.99087116303286
 30
0.0
 11
-62.5755429027385
 21
-30.40600199799984
 31
0.0
  0
LINE
  5
280
330
1F
100
AcDbEntity
  8
Default
100
AcDbLine
 10
-62.5755429027385
 20
-30.40600199799984
 30
0.0
 11
-62.1411759207794
 21
-30.40601572122323
 31
0.0
  0
LINE
  5
281
330
1F
100
AcDbEntity
  8
Default
100
AcDbLine
 10
-62.1411759207794
 20
-30.40601572122323
 30
0.0
 11
-61.70680893882029
 21
-30.4060294444466
 31
0.0
  0
LINE
  5
282
330
1F
100
AcDbEntity
  8
Default
100
AcDbLine
 10
-61.70680893882029
 20
-30.4060294444466
 30
0.0
 11
-61.70680893882029
 21
-36.99087116303286
 31
0.0
  0
LINE
  5
283
330
1F
100
AcDbEntity
  8
Default
100
AcDbLine
 10
-61.70680893882029
 20
-36.99087116303286
 30
0.0
 11
-61.58271118097007
 21
-36.99087116303286
 31
0.0
  0
LINE
  5
284
330
1F
100
AcDbEntity
  8
Default
100
AcDbLine
 10
-61.58271118097007
 20
-36.99087116303286
 30
0.0
 11
-61.58271118097007
 21
-30.4060294444466
 31
0.0
  0
LINE
  5
285
330
1F
100
AcDbEntity
  8
Default
100
AcDbLine
 10
-61.58271118097007
 20
-30.4060294444466
 30
0.0
 11
-60.71397721705186
 21
-30.4060294444466
 31
0.0
  0
LINE
  5
286
330
1F
100
AcDbEntity
  8
Default
100
AcDbLine
 10
-60.71397721705186
 20
-30.4060294444466
 30
0.0
 11
-60.71397721705186
 21
-36.99087116303286
 31
0.0
  0
LINE
  5
287
330
1F
100
AcDbEntity
  8
Default
100
AcDbLine
 10
-60.71397721705186
 20
-36.99087116303286
 30
0.0
 11
-60.58987945920164
 21
-36.99087116303286
 31
0.0
  0
LINE
  5
288
330
1F
100
AcDbEntity
  8
Default
100
AcDbLine
 10
-60.58987945920164
 20
-36.99087116303286
 30
0.0
 11
-60.58987945920165
 21
-30.40600199799984
 31
0.0
  0
LINE
  5
289
330
1F
100
AcDbEntity
  8
Default
100
AcDbLine
 10
-60.58987945920165
 20
-30.40600199799984
 30
0.0
 11
-60.15551247724254
 21
-30.40601572122323
 31
0.0
  0
LINE
  5
28A
330
1F
100
AcDbEntity
  8
Default
100
AcDbLine
 10
-60.15551247724254
 20
-30.40601572122323
 30
0.0
 11
-59.72114549528342
 21
-30.4060294444466
 31
0.0
  0
LINE
  5
28B
330
1F
100
AcDbEntity
  8
Default
100
AcDbLine
 10
-59.72114549528342
 20
-30.4060294444466
 30
0.0
 11
-59.72114549528342
 21
-36.99087116303286
 31
0.0
  0
LINE
  5
28C
330
1F
100
AcDbEntity
  8
Default
100
AcDbLine
 10
-59.72114549528342
 20
-36.99087116303286
 30
0.0
 11
-59.59704773743321
 21
-36.99087116303286
 31
0.0
  0
LINE
  5
28D
330
1F
100
AcDbEntity
  8
Default
100
AcDbLine
 10
-59.59704773743321
 20
-36.99087116303286
 30
0.0
 11
-59.59704773743321
 21
-30.4060294444466
 31
0.0
  0
LINE
  5
28E
330
1F
100
AcDbEntity
  8
Default
100
AcDbLine
 10
-59.59704773743321
 20
-30.4060294444466
 30
0.0
 11
-58.728313773515
 21
-30.4060294444466
 31
0.0
  0
LINE
  5
28F
330
1F
100
AcDbEntity
  8
Default
100
AcDbLine
 10
-58.728313773515
 20
-30.4060294444466
 30
0.0
 11
-58.728313773515
 21
-36.99087116303286
 31
0.0
  0
LINE
  5
290
330
1F
100
AcDbEntity
  8
Default
100
AcDbLine
 10
-58.728313773515
 20
-36.99087116303286
 30
0.0
 11
-58.60421601566478
 21
-36.99087116303286
 31
0.0
  0
LINE
  5
291
330
1F
100
AcDbEntity
  8
Default
100
AcDbLine
 10
-58.60421601566478
 20
-36.99087116303286
 30
0.0
 11
-58.60421601566479
 21
-30.40600199799984
 31
0.0
  0
LINE
  5
292
330
1F
100
AcDbEntity
  8
Default
100
AcDbLine
 10
-58.60421601566479
 20
-30.40600199799984
 30
0.0
 11
-58.16984903370567
 21
-30.40601572122323
 31
0.0
  0
LINE
  5
293
330
1F
100
AcDbEntity
  8
Default
100
AcDbLine
 10
-58.16984903370567
 20
-30.40601572122323
 30
0.0
 11
-57.73548205174657
 21
-30.4060294444466
 31
0.0
  0
LINE
  5
294
330
1F
100
AcDbEntity
  8
Default
100
AcDbLine
 10
-57.73548205174657
 20
-30.4060294444466
 30
0.0
 11
-57.73548205174657
 21
-36.99087116303286
 31
0.0
  0
LINE
  5
295
330
1F
100
AcDbEntity
  8
Default
100
AcDbLine
 10
-57.73548205174657
 20
-36.99087116303286
 30
0.0
 11
-57.61138429389635
 21
-36.99087116303286
 31
0.0
  0
LINE
  5
296
330
1F
100
AcDbEntity
  8
Default
100
AcDbLine
 10
-57.61138429389635
 20
-36.99087116303286
 30
0.0
 11
-57.61138429389635
 21
-30.4060294444466
 31
0.0
  0
LINE
  5
297
330
1F
100
AcDbEntity
  8
Default
100
AcDbLine
 10
-57.61138429389635
 20
-30.4060294444466
 30
0.0
 11
-56.74265032997813
 21
-30.4060294444466
 31
0.0
  0
LINE
  5
298
330
1F
100
AcDbEntity
  8
Default
100
AcDbLine
 10
-56.74265032997813
 20
-30.4060294444466
 30
0.0
 11
-56.74265032997813
 21
-36.99087116303286
 31
0.0
  0
LINE
  5
299
330
1F
100
AcDbEntity
  8
Default
100
AcDbLine
 10
-56.74265032997813
 20
-36.99087116303286
 30
0.0
 11
-56.61855257212792
 21
-36.99087116303286
 31
0.0
  0
LINE
  5
29A
330
1F
100
AcDbEntity
  8
Default
100
AcDbLine
 10
-56.61855257212792
 20
-36.99087116303286
 30
0.0
 11
-56.61855257212792
 21
-30.40600199799984
 31
0.0
  0
LINE
  5
29B
330
1F
100
AcDbEntity
  8
Default
100
AcDbLine
 10
-56.61855257212792
 20
-30.40600199799984
 30
0.0
 11
-56.18418559016882
 21
-30.40601572122323
 31
0.0
  0
LINE
  5
29C
330
1F
100
AcDbEntity
  8
Default
100
AcDbLine
 10
-56.18418559016882
 20
-30.40601572122323
 30
0.0
 11
-55.7498186082097
 21
-30.4060294444466
 31
0.0
  0
LINE
  5
29D
330
1F
100
AcDbEntity
  8
Default
100
AcDbLine
 10
-55.7498186082097
 20
-30.4060294444466
 30
0.0
 11
-55.7498186082097
 21
-36.99087116303286
 31
0.0
  0
LINE
  5
29E
330
1F
100
AcDbEntity
  8
Default
100
AcDbLine
 10
-55.7498186082097
 20
-36.99087116303286
 30
0.0
 11
-55.62572085035949
 21
-36.99087116303286
 31
0.0
  0
LINE
  5
29F
330
1F
100
AcDbEntity
  8
Default
100
AcDbLine
 10
-55.62572085035949
 20
-36.99087116303286
 30
0.0
 11
-55.62572085035949
 21
-30.4060294444466
 31
0.0
  0
LINE
  5
2A0
330
1F
100
AcDbEntity
  8
Default
100
AcDbLine
 10
-55.62572085035949
 20
-30.4060294444466
 30
0.0
 11
-54.75698688644127
 21
-30.4060294444466
 31
0.0
  0
LINE
  5
2A1
330
1F
100
AcDbEntity
  8
Default
100
AcDbLine
 10
-54.75698688644127
 20
-30.4060294444466
 30
0.0
 11
-54.75698688644127
 21
-36.99087116303286
 31
0.0
  0
LINE
  5
2A2
330
1F
100
AcDbEntity
  8
Default
100
AcDbLine
 10
-54.75698688644127
 20
-36.99087116303286
 30
0.0
 11
-54.63288912859106
 21
-36.99087116303286
 31
0.0
  0
LINE
  5
2A3
330
1F
100
AcDbEntity
  8
Default
100
AcDbLine
 10
-54.63288912859106
 20
-36.99087116303286
 30
0.0
 11
-54.63288912859106
 21
-30.40600199799984
 31
0.0
  0
LINE
  5
2A4
330
1F
100
AcDbEntity
  8
Default
100
AcDbLine
 10
-54.63288912859106
 20
-30.40600199799984
 30
0.0
 11
-54.19852214663196
 21
-30.40601572122323
 31
0.0
  0
LINE
  5
2A5
330
1F
100
AcDbEntity
  8
Default
100
AcDbLine
 10
-54.19852214663196
 20
-30.40601572122323
 30
0.0
 11
-53.76415516467284
 21
-30.4060294444466
 31
0.0
  0
LINE
  5
2A6
330
1F
100
AcDbEntity
  8
Default
100
AcDbLine
 10
-53.76415516467284
 20
-30.4060294444466
 30
0.0
 11
-53.76415516467284
 21
-36.99087116303286
 31
0.0
  0
LINE
  5
2A7
330
1F
100
AcDbEntity
  8
Default
100
AcDbLine
 10
-53.76415516467284
 20
-36.99087116303286
 30
0.0
 11
-53.64005740682263
 21
-36.99087116303286
 31
0.0
  0
LINE
  5
2A8
330
1F
100
AcDbEntity
  8
Default
100
AcDbLine
 10
-53.64005740682263
 20
-36.99087116303286
 30
0.0
 11
-53.64005740682263
 21
-30.4060294444466
 31
0.0
  0
LINE
  5
2A9
330
1F
100
AcDbEntity
  8
Default
100
AcDbLine
 10
-53.64005740682263
 20
-30.4060294444466
 30
0.0
 11
-52.77132344290441
 21
-30.4060294444466
 31
0.0
  0
LINE
  5
2AA
330
1F
100
AcDbEntity
  8
Default
100
AcDbLine
 10
-52.77132344290441
 20
-30.4060294444466
 30
0.0
 11
-52.77132344290441
 21
-36.99087116303286
 31
0.0
  0
LINE
  5
2AB
330
1F
100
AcDbEntity
  8
Default
100
AcDbLine
 10
-52.77132344290441
 20
-36.99087116303286
 30
0.0
 11
-52.6472256850542
 21
-36.99087116303286
 31
0.0
  0
LINE
  5
2AC
330
1F
100
AcDbEntity
  8
Default
100
AcDbLine
 10
-52.6472256850542
 20
-36.99087116303286
 30
0.0
 11
-52.6472256850542
 21
-30.40600199799984
 31
0.0
  0
LINE
  5
2AD
330
1F
100
AcDbEntity
  8
Default
100
AcDbLine
 10
-52.6472256850542
 20
-30.40600199799984
 30
0.0
 11
-52.21285870309509
 21
-30.40601572122323
 31
0.0
  0
LINE
  5
2AE
330
1F
100
AcDbEntity
  8
Default
100
AcDbLine
 10
-52.21285870309509
 20
-30.40601572122323
 30
0.0
 11
-51.77849172113598
 21
-30.4060294444466
 31
0.0
  0
LINE
  5
2AF
330
1F
100
AcDbEntity
  8
Default
100
AcDbLine
 10
-51.77849172113598
 20
-30.4060294444466
 30
0.0
 11
-51.77849172113598
 21
-36.99087116303286
 31
0.0
  0
LINE
  5
2B0
330
1F
100
AcDbEntity
  8
Default
100
AcDbLine
 10
-51.77849172113598
 20
-36.99087116303286
 30
0.0
 11
-51.65439396328576
 21
-36.99087116303286
 31
0.0
  0
LINE
  5
2B1
330
1F
100
AcDbEntity
  8
Default
100
AcDbLine
 10
-51.65439396328576
 20
-36.99087116303286
 30
0.0
 11
-51.65439396328576
 21
-30.4060294444466
 31
0.0
  0
LINE
  5
2B2
330
1F
100
AcDbEntity
  8
Default
100
AcDbLine
 10
-51.65439396328576
 20
-30.4060294444466
 30
0.0
 11
-50.78565999936755
 21
-30.4060294444466
 31
0.0
  0
LINE
  5
2B3
330
1F
100
AcDbEntity
  8
Default
100
AcDbLine
 10
-50.78565999936755
 20
-30.4060294444466
 30
0.0
 11
-50.78565999936755
 21
-36.99087116303286
 31
0.0
  0
LINE
  5
2B4
330
1F
100
AcDbEntity
  8
Default
100
AcDbLine
 10
-50.78565999936755
 20
-36.99087116303286
 30
0.0
 11
-50.66156224151733
 21
-36.99087116303286
 31
0.0
  0
LINE
  5
2B5
330
1F
100
AcDbEntity
  8
Default
100
AcDbLine
 10
-50.66156224151733
 20
-36.99087116303286
 30
0.0
 11
-50.66156224151734
 21
-30.40600199799984
 31
0.0
  0
LINE
  5
2B6
330
1F
100
AcDbEntity
  8
Default
100
AcDbLine
 10
-50.66156224151734
 20
-30.40600199799984
 30
0.0
 11
-50.22719525955823
 21
-30.40601572122323
 31
0.0
  0
LINE
  5
2B7
330
1F
100
AcDbEntity
  8
Default
100
AcDbLine
 10
-50.22719525955823
 20
-30.40601572122323
 30
0.0
 11
-49.79282827759912
 21
-30.4060294444466
 31
0.0
  0
LINE
  5
2B8
330
1F
100
AcDbEntity
  8
Default
100
AcDbLine
 10
-49.79282827759912
 20
-30.4060294444466
 30
0.0
 11
-49.79282827759912
 21
-36.99087116303286
 31
0.0
  0
LINE
  5
2B9
330
1F
100
AcDbEntity
  8
Default
100
AcDbLine
 10
-49.79282827759912
 20
-36.99087116303286
 30
0.0
 11
-49.66873051974891
 21
-36.99087116303286
 31
0.0
  0
LINE
  5
2BA
330
1F
100
AcDbEntity
  8
Default
100
AcDbLine
 10
-49.66873051974891
 20
-36.99087116303286
 30
0.0
 11
-49.66873051974891
 21
-30.4060294444466
 31
0.0
  0
LINE
  5
2BB
330
1F
100
AcDbEntity
  8
Default
100
AcDbLine
 10
-49.66873051974891
 20
-30.4060294444466
 30
0.0
 11
-48.79999655583069
 21
-30.4060294444466
 31
0.0
  0
LINE
  5
2BC
330
1F
100
AcDbEntity
  8
Default
100
AcDbLine
 10
-48.79999655583069
 20
-30.4060294444466
 30
0.0
 11
-48.79999655583069
 21
-36.99087116303286
 31
0.0
  0
LINE
  5
2BD
330
1F
100
AcDbEntity
  8
Default
100
AcDbLine
 10
-48.79999655583069
 20
-36.99087116303286
 30
0.0
 11
-48.67589879798047
 21
-36.99087116303286
 31
0.0
  0
LINE
  5
2BE
330
1F
100
AcDbEntity
  8
Default
100
AcDbLine
 10
-48.67589879798047
 20
-36.99087116303286
 30
0.0
 11
-48.67589879798048
 21
-30.40600199799984
 31
0.0
  0
LINE
  5
2BF
330
1F
100
AcDbEntity
  8
Default
100
AcDbLine
 10
-48.67589879798048
 20
-30.40600199799984
 30
0.0
 11
-48.24153181602137
 21
-30.40601572122323
 31
0.0
  0
LINE
  5
2C0
330
1F
100
AcDbEntity
  8
Default
100
AcDbLine
 10
-48.24153181602137
 20
-30.40601572122323
 30
0.0
 11
-47.80716483406226
 21
-30.4060294444466
 31
0.0
  0
LINE
  5
2C1
330
1F
100
AcDbEntity
  8
Default
100
AcDbLine
 10
-47.80716483406226
 20
-30.4060294444466
 30
0.0
 11
-47.80716483406226
 21
-36.99087116303286
 31
0.0
  0
LINE
  5
2C2
330
1F
100
AcDbEntity
  8
Default
100
AcDbLine
 10
-47.80716483406226
 20
-36.99087116303286
 30
0.0
 11
-47.68306707621204
 21
-36.99087116303286
 31
0.0
  0
LINE
  5
2C3
330
1F
100
AcDbEntity
  8
Default
100
AcDbLine
 10
-47.68306707621204
 20
-36.99087116303286
 30
0.0
 11
-47.68306707621204
 21
-30.4060294444466
 31
0.0
  0
LINE
  5
2C4
330
1F
100
AcDbEntity
  8
Default
100
AcDbLine
 10
-47.68306707621204
 20
-30.4060294444466
 30
0.0
 11
-46.81433311229382
 21
-30.4060294444466
 31
0.0
  0
LINE
  5
2C5
330
1F
100
AcDbEntity
  8
Default
100
AcDbLine
 10
-46.81433311229382
 20
-30.4060294444466
 30
0.0
 11
-46.81433311229382
 21
-36.99087116303286
 31
0.0
  0
LINE
  5
2C6
330
1F
100
AcDbEntity
  8
Default
100
AcDbLine
 10
-46.81433311229382
 20
-36.99087116303286
 30
0.0
 11
-46.69023535444361
 21
-36.99087116303286
 31
0.0
  0
LINE
  5
2C7
330
1F
100
AcDbEntity
  8
Default
100
AcDbLine
 10
-46.69023535444361
 20
-36.99087116303286
 30
0.0
 11
-46.69023535444362
 21
-30.40600199799984
 31
0.0
  0
LINE
  5
2C8
330
1F
100
AcDbEntity
  8
Default
100
AcDbLine
 10
-46.69023535444362
 20
-30.40600199799984
 30
0.0
 11
-46.25586837248451
 21
-30.40601572122323
 31
0.0
  0
LINE
  5
2C9
330
1F
100
AcDbEntity
  8
Default
100
AcDbLine
 10
-46.25586837248451
 20
-30.40601572122323
 30
0.0
 11
-45.8215013905254
 21
-30.4060294444466
 31
0.0
  0
LINE
  5
2CA
330
1F
100
AcDbEntity
  8
Default
100
AcDbLine
 10
-45.8215013905254
 20
-30.4060294444466
 30
0.0
 11
-45.8215013905254
 21
-36.99087116303286
 31
0.0
  0
LINE
  5
2CB
330
1F
100
AcDbEntity
  8
Default
100
AcDbLine
 10
-45.8215013905254
 20
-36.99087116303286
 30
0.0
 11
-45.69740363267518
 21
-36.99087116303286
 31
0.0
  0
LINE
  5
2CC
330
1F
100
AcDbEntity
  8
Default
100
AcDbLine
 10
-45.69740363267518
 20
-36.99087116303286
 30
0.0
 11
-45.69740363267518
 21
-30.4060294444466
 31
0.0
  0
LINE
  5
2CD
330
1F
100
AcDbEntity
  8
Default
100
AcDbLine
 10
-45.69740363267518
 20
-30.4060294444466
 30
0.0
 11
-44.82866966875697
 21
-30.4060294444466
 31
0.0
  0
LINE
  5
2CE
330
1F
100
AcDbEntity
  8
Default
100
AcDbLine
 10
-44.82866966875697
 20
-30.4060294444466
 30
0.0
 11
-44.82866966875697
 21
-36.99087116303286
 31
0.0
  0
LINE
  5
2CF
330
1F
100
AcDbEntity
  8
Default
100
AcDbLine
 10
-44.82866966875697
 20
-36.99087116303286
 30
0.0
 11
-44.70457191090675
 21
-36.99087116303286
 31
0.0
  0
LINE
  5
2D0
330
1F
100
AcDbEntity
  8
Default
100
AcDbLine
 10
-44.70457191090675
 20
-36.99087116303286
 30
0.0
 11
-44.70457191090675
 21
-30.40600199799984
 31
0.0
  0
LINE
  5
2D1
330
1F
100
AcDbEntity
  8
Default
100
AcDbLine
 10
-44.70457191090675
 20
-30.40600199799984
 30
0.0
 11
-44.27020492894765
 21
-30.40601572122323
 31
0.0
  0
LINE
  5
2D2
330
1F
100
AcDbEntity
  8
Default
100
AcDbLine
 10
-44.27020492894765
 20
-30.40601572122323
 30
0.0
 11
-43.83583794698853
 21
-30.4060294444466
 31
0.0
  0
LINE
  5
2D3
330
1F
100
AcDbEntity
  8
Default
100
AcDbLine
 10
-43.83583794698853
 20
-30.4060294444466
 30
0.0
 11
-43.83583794698853
 21
-36.99087116303286
 31
0.0
  0
LINE
  5
2D4
330
1F
100
AcDbEntity
  8
Default
100
AcDbLine
 10
-43.83583794698853
 20
-36.99087116303286
 30
0.0
 11
-43.71174018913832
 21
-36.99087116303286
 31
0.0
  0
LINE
  5
2D5
330
1F
100
AcDbEntity
  8
Default
100
AcDbLine
 10
-43.71174018913832
 20
-36.99087116303286
 30
0.0
 11
-43.71174018913832
 21
-30.4060294444466
 31
0.0
  0
LINE
  5
2D6
330
1F
100
AcDbEntity
  8
Default
100
AcDbLine
 10
-43.71174018913832
 20
-30.4060294444466
 30
0.0
 11
-42.8430062252201
 21
-30.4060294444466
 31
0.0
  0
LINE
  5
2D7
330
1F
100
AcDbEntity
  8
Default
100
AcDbLine
 10
-42.8430062252201
 20
-30.4060294444466
 30
0.0
 11
-42.8430062252201
 21
-36.99087116303286
 31
0.0
  0
LINE
  5
2D8
330
1F
100
AcDbEntity
  8
Default
100
AcDbLine
 10
-42.8430062252201
 20
-36.99087116303286
 30
0.0
 11
-42.71890846736989
 21
-36.99087116303286
 31
0.0
  0
LINE
  5
2D9
330
1F
100
AcDbEntity
  8
Default
100
AcDbLine
 10
-42.71890846736989
 20
-36.99087116303286
 30
0.0
 11
-42.71890846736989
 21
-30.40600199799984
 31
0.0
  0
LINE
  5
2DA
330
1F
100
AcDbEntity
  8
Default
100
AcDbLine
 10
-42.71890846736989
 20
-30.40600199799984
 30
0.0
 11
-42.28454148541078
 21
-30.40601572122323
 31
0.0
  0
LINE
  5
2DB
330
1F
100
AcDbEntity
  8
Default
100
AcDbLine
 10
-42.28454148541078
 20
-30.40601572122323
 30
0.0
 11
-41.85017450345167
 21
-30.4060294444466
 31
0.0
  0
LINE
  5
2DC
330
1F
100
AcDbEntity
  8
Default
100
AcDbLine
 10
-41.85017450345167
 20
-30.4060294444466
 30
0.0
 11
-41.85017450345167
 21
-36.99087116303286
 31
0.0
  0
LINE
  5
2DD
330
1F
100
AcDbEntity
  8
Default
100
AcDbLine
 10
-41.85017450345167
 20
-36.99087116303286
 30
0.0
 11
-41.72607674560145
 21
-36.99087116303286
 31
0.0
  0
LINE
  5
2DE
330
1F
100
AcDbEntity
  8
Default
100
AcDbLine
 10
-41.72607674560145
 20
-36.99087116303286
 30
0.0
 11
-41.72607674560145
 21
-30.4060294444466
 31
0.0
  0
LINE
  5
2DF
330
1F
100
AcDbEntity
  8
Default
100
AcDbLine
 10
-41.72607674560145
 20
-30.4060294444466
 30
0.0
 11
-40.85734278168324
 21
-30.4060294444466
 31
0.0
  0
LINE
  5
2E0
330
1F
100
AcDbEntity
  8
Default
100
AcDbLine
 10
-40.85734278168324
 20
-30.4060294444466
 30
0.0
 11
-40.85734278168324
 21
-36.99087116303286
 31
0.0
  0
LINE
  5
2E1
330
1F
100
AcDbEntity
  8
Default
100
AcDbLine
 10
-40.85734278168324
 20
-36.99087116303286
 30
0.0
 11
-40.73324502383302
 21
-36.99087116303286
 31
0.0
  0
LINE
  5
2E2
330
1F
100
AcDbEntity
  8
Default
100
AcDbLine
 10
-40.73324502383302
 20
-36.99087116303286
 30
0.0
 11
-40.73324502383304
 21
-30.40600199799984
 31
0.0
  0
LINE
  5
2E3
330
1F
100
AcDbEntity
  8
Default
100
AcDbLine
 10
-40.73324502383304
 20
-30.40600199799984
 30
0.0
 11
-40.29887804187392
 21
-30.40601572122323
 31
0.0
  0
LINE
  5
2E4
330
1F
100
AcDbEntity
  8
Default
100
AcDbLine
 10
-40.29887804187392
 20
-30.40601572122323
 30
0.0
 11
-39.86451105991481
 21
-30.4060294444466
 31
0.0
  0
LINE
  5
2E5
330
1F
100
AcDbEntity
  8
Default
100
AcDbLine
 10
-39.86451105991481
 20
-30.4060294444466
 30
0.0
 11
-39.86451105991481
 21
-36.99087116303286
 31
0.0
  0
LINE
  5
2E6
330
1F
100
AcDbEntity
  8
Default
100
AcDbLine
 10
-39.86451105991481
 20
-36.99087116303286
 30
0.0
 11
-39.7404133020646
 21
-36.99087116303286
 31
0.0
  0
LINE
  5
2E7
330
1F
100
AcDbEntity
  8
Default
100
AcDbLine
 10
-39.7404133020646
 20
-36.99087116303286
 30
0.0
 11
-39.7404133020646
 21
-30.4060294444466
 31
0.0
  0
LINE
  5
2E8
330
1F
100
AcDbEntity
  8
Default
100
AcDbLine
 10
-39.7404133020646
 20
-30.4060294444466
 30
0.0
 11
-38.87167933814638
 21
-30.4060294444466
 31
0.0
  0
LINE
  5
2E9
330
1F
100
AcDbEntity
  8
Default
100
AcDbLine
 10
-38.87167933814638
 20
-30.4060294444466
 30
0.0
 11
-38.87167933814638
 21
-36.99087116303286
 31
0.0
  0
LINE
  5
2EA
330
1F
100
AcDbEntity
  8
Default
100
AcDbLine
 10
-38.87167933814638
 20
-36.99087116303286
 30
0.0
 11
-38.74758158029616
 21
-36.99087116303286
 31
0.0
  0
LINE
  5
2EB
330
1F
100
AcDbEntity
  8
Default
100
AcDbLine
 10
-38.74758158029616
 20
-36.99087116303286
 30
0.0
 11
-38.74758158029617
 21
-30.40600199799984
 31
0.0
  0
LINE
  5
2EC
330
1F
100
AcDbEntity
  8
Default
100
AcDbLine
 10
-38.74758158029617
 20
-30.40600199799984
 30
0.0
 11
-38.31321459833706
 21
-30.40601572122323
 31
0.0
  0
LINE
  5
2ED
330
1F
100
AcDbEntity
  8
Default
100
AcDbLine
 10
-38.31321459833706
 20
-30.40601572122323
 30
0.0
 11
-37.87884761637795
 21
-30.4060294444466
 31
0.0
  0
LINE
  5
2EE
330
1F
100
AcDbEntity
  8
Default
100
AcDbLine
 10
-37.87884761637795
 20
-30.4060294444466
 30
0.0
 11
-37.87884761637795
 21
-36.99087116303286
 31
0.0
  0
LINE
  5
2EF
330
1F
100
AcDbEntity
  8
Default
100
AcDbLine
 10
-37.87884761637795
 20
-36.99087116303286
 30
0.0
 11
-37.75474985852773
 21
-36.99087116303286
 31
0.0
  0
LINE
  5
2F0
330
1F
100
AcDbEntity
  8
Default
100
AcDbLine
 10
-37.75474985852773
 20
-36.99087116303286
 30
0.0
 11
-37.75474985852773
 21
-30.4060294444466
 31
0.0
  0
LINE
  5
2F1
330
1F
100
AcDbEntity
  8
Default
100
AcDbLine
 10
-37.75474985852773
 20
-30.4060294444466
 30
0.0
 11
-36.88601589460951
 21
-30.4060294444466
 31
0.0
  0
LINE
  5
2F2
330
1F
100
AcDbEntity
  8
Default
100
AcDbLine
 10
-36.88601589460951
 20
-30.4060294444466
 30
0.0
 11
-36.88601589460951
 21
-36.99087116303286
 31
0.0
  0
LINE
  5
2F3
330
1F
100
AcDbEntity
  8
Default
100
AcDbLine
 10
-36.88601589460951
 20
-36.99087116303286
 30
0.0
 11
-36.76191813675931
 21
-36.99087116303286
 31
0.0
  0
LINE
  5
2F4
330
1F
100
AcDbEntity
  8
Default
100
AcDbLine
 10
-36.76191813675931
 20
-36.99087116303286
 30
0.0
 11
-36.76191813675931
 21
-30.40600199799984
 31
0.0
  0
LINE
  5
2F5
330
1F
100
AcDbEntity
  8
Default
100
AcDbLine
 10
-36.76191813675931
 20
-30.40600199799984
 30
0.0
 11
-36.3275511548002
 21
-30.40601572122323
 31
0.0
  0
LINE
  5
2F6
330
1F
100
AcDbEntity
  8
Default
100
AcDbLine
 10
-36.3275511548002
 20
-30.40601572122323
 30
0.0
 11
-35.89318417284109
 21
-30.4060294444466
 31
0.0
  0
LINE
  5
2F7
330
1F
100
AcDbEntity
  8
Default
100
AcDbLine
 10
-35.89318417284109
 20
-30.4060294444466
 30
0.0
 11
-35.89318417284109
 21
-36.99087116303286
 31
0.0
  0
LINE
  5
2F8
330
1F
100
AcDbEntity
  8
Default
100
AcDbLine
 10
-35.89318417284109
 20
-36.99087116303286
 30
0.0
 11
-35.76908641499087
 21
-36.99087116303286
 31
0.0
  0
LINE
  5
2F9
330
1F
100
AcDbEntity
  8
Default
100
AcDbLine
 10
-35.76908641499087
 20
-36.99087116303286
 30
0.0
 11
-35.76908641499087
 21
-30.4060294444466
 31
0.0
  0
LINE
  5
2FA
330
1F
100
AcDbEntity
  8
Default
100
AcDbLine
 10
-35.76908641499087
 20
-30.4060294444466
 30
0.0
 11
-34.90035245107266
 21
-30.4060294444466
 31
0.0
  0
LINE
  5
2FB
330
1F
100
AcDbEntity
  8
Default
100
AcDbLine
 10
-34.90035245107266
 20
-30.4060294444466
 30
0.0
 11
-34.90035245107266
 21
-36.99087116303286
 31
0.0
  0
LINE
  5
2FC
330
1F
100
AcDbEntity
  8
Default
100
AcDbLine
 10
-34.90035245107266
 20
-36.99087116303286
 30
0.0
 11
-34.77625469322244
 21
-36.99087116303286
 31
0.0
  0
LINE
  5
2FD
330
1F
100
AcDbEntity
  8
Default
100
AcDbLine
 10
-34.77625469322244
 20
-36.99087116303286
 30
0.0
 11
-34.77625469322244
 21
-30.40600199799984
 31
0.0
  0
LINE
  5
2FE
330
1F
100
AcDbEntity
  8
Default
100
AcDbLine
 10
-34.77625469322244
 20
-30.40600199799984
 30
0.0
 11
-34.34188771126334
 21
-30.40601572122323
 31
0.0
  0
LINE
  5
2FF
330
1F
100
AcDbEntity
  8
Default
100
AcDbLine
 10
-34.34188771126334
 20
-30.40601572122323
 30
0.0
 11
-33.90752072930422
 21
-30.4060294444466
 31
0.0
  0
LINE
  5
300
330
1F
100
AcDbEntity
  8
Default
100
AcDbLine
 10
-33.90752072930422
 20
-30.4060294444466
 30
0.0
 11
-33.90752072930422
 21
-36.99087116303286
 31
0.0
  0
LINE
  5
301
330
1F
100
AcDbEntity
  8
Default
100
AcDbLine
 10
-33.90752072930422
 20
-36.99087116303286
 30
0.0
 11
-33.78342297145401
 21
-36.99087116303286
 31
0.0
  0
LINE
  5
302
330
1F
100
AcDbEntity
  8
Default
100
AcDbLine
 10
-33.78342297145401
 20
-36.99087116303286
 30
0.0
 11
-33.78342297145401
 21
-30.4060294444466
 31
0.0
  0
LINE
  5
303
330
1F
100
AcDbEntity
  8
Default
100
AcDbLine
 10
-33.78342297145401
 20
-30.4060294444466
 30
0.0
 11
-32.9146890075358
 21
-30.4060294444466
 31
0.0
  0
LINE
  5
304
330
1F
100
AcDbEntity
  8
Default
100
AcDbLine
 10
-32.9146890075358
 20
-30.4060294444466
 30
0.0
 11
-32.9146890075358
 21
-36.99087116303286
 31
0.0
  0
LINE
  5
305
330
1F
100
AcDbEntity
  8
Default
100
AcDbLine
 10
-32.9146890075358
 20
-36.99087116303286
 30
0.0
 11
-32.79059124968558
 21
-36.99087116303286
 31
0.0
  0
LINE
  5
306
330
1F
100
AcDbEntity
  8
Default
100
AcDbLine
 10
-32.79059124968558
 20
-36.99087116303286
 30
0.0
 11
-32.79059124968558
 21
-30.40600199799984
 31
0.0
  0
LINE
  5
307
330
1F
100
AcDbEntity
  8
Default
100
AcDbLine
 10
-32.79059124968558
 20
-30.40600199799984
 30
0.0
 11
-32.35622426772647
 21
-30.40601572122323
 31
0.0
  0
LINE
  5
308
330
1F
100
AcDbEntity
  8
Default
100
AcDbLine
 10
-32.35622426772647
 20
-30.40601572122323
 30
0.0
 11
-31.92185728576736
 21
-30.4060294444466
 31
0.0
  0
LINE
  5
309
330
1F
100
AcDbEntity
  8
Default
100
AcDbLine
 10
-31.92185728576736
 20
-30.4060294444466
 30
0.0
 11
-31.92185728576736
 21
-36.99087116303286
 31
0.0
  0
LINE
  5
30A
330
1F
100
AcDbEntity
  8
Default
100
AcDbLine
 10
-31.92185728576736
 20
-36.99087116303286
 30
0.0
 11
-31.79775952791715
 21
-36.99087116303286
 31
0.0
  0
LINE
  5
30B
330
1F
100
AcDbEntity
  8
Default
100
AcDbLine
 10
-31.79775952791715
 20
-36.99087116303286
 30
0.0
 11
-31.79775952791715
 21
-30.4060294444466
 31
0.0
  0
LINE
  5
30C
330
1F
100
AcDbEntity
  8
Default
100
AcDbLine
 10
-31.79775952791715
 20
-30.4060294444466
 30
0.0
 11
-30.92902556399893
 21
-30.4060294444466
 31
0.0
  0
LINE
  5
30D
330
1F
100
AcDbEntity
  8
Default
100
AcDbLine
 10
-30.92902556399893
 20
-30.4060294444466
 30
0.0
 11
-30.92902556399893
 21
-36.99087116303286
 31
0.0
  0
LINE
  5
30E
330
1F
100
AcDbEntity
  8
Default
100
AcDbLine
 10
-30.92902556399893
 20
-36.99087116303286
 30
0.0
 11
-30.80492780614872
 21
-36.99087116303286
 31
0.0
  0
LINE
  5
30F
330
1F
100
AcDbEntity
  8
Default
100
AcDbLine
 10
-30.80492780614872
 20
-36.99087116303286
 30
0.0
 11
-30.80492780614872
 21
-30.40600199799984
 31
0.0
  0
LINE
  5
310
330
1F
100
AcDbEntity
  8
Default
100
AcDbLine
 10
-30.80492780614872
 20
-30.40600199799984
 30
0.0
 11
-30.37056082418962
 21
-30.40601572122323
 31
0.0
  0
LINE
  5
311
330
1F
100
AcDbEntity
  8
Default
100
AcDbLine
 10
-31.42544142488315
 20
-40.28329202232599
 30
0.0
 11
-31.42544142488315
 21
-32.87533136569308
 31
0.0
  0
LINE
  5
312
330
1F
100
AcDbEntity
  8
Default
100
AcDbLine
 10
-31.42544142488315
 20
-32.87533136569308
 30
0.0
 11
-31.30134366703294
 21
-32.87533136569308
 31
0.0
  0
LINE
  5
313
330
1F
100
AcDbEntity
  8
Default
100
AcDbLine
 10
-31.30134366703294
 20
-32.87533136569308
 30
0.0
 11
-31.30134366703294
 21
-40.28329202232599
 31
0.0
  0
LINE
  5
314
330
1F
100
AcDbEntity
  8
Default
100
AcDbLine
 10
-31.30134366703294
 20
-40.28329202232599
 30
0.0
 11
-31.30134366703294
 21
-47.69125267895892
 31
0.0
  0
LINE
  5
315
330
1F
100
AcDbEntity
  8
Default
100
AcDbLine
 10
-31.30134366703294
 20
-47.69125267895892
 30
0.0
 11
-31.42544142488315
 21
-47.69125267895892
 31
0.0
  0
LINE
  5
316
330
1F
100
AcDbEntity
  8
Default
100
AcDbLine
 10
-31.42544142488315
 20
-47.69125267895892
 30
0.0
 11
-31.42544142488315
 21
-40.28329202232599
 31
0.0
  0
LINE
  5
317
330
1F
100
AcDbEntity
  8
Default
100
AcDbLine
 10
-30.43260970311471
 20
-47.69125267895892
 30
0.0
 11
-30.37056082418962
 21
-47.69125267895892
 31
0.0
  0
LINE
  5
318
330
1F
100
AcDbEntity
  8
Default
100
AcDbLine
 10
-68.09816625138998
 20
-47.69125267895892
 30
0.0
 11
-68.03611737246489
 21
-47.69125267895892
 31
0.0
  0
LINE
  5
319
330
1F
100
AcDbEntity
  8
Default
100
AcDbLine
 10
-30.43260970311471
 20
-32.87533136569308
 30
0.0
 11
-30.37056082418962
 21
-32.87533136569308
 31
0.0
  0
LINE
  5
31A
330
1F
100
AcDbEntity
  8
Default
100
AcDbLine
 10
-68.09816625138998
 20
-32.87533136569308
 30
0.0
 11
-68.03611737246489
 21
-32.87533136569308
 31
0.0
  0
ENDSEC
  0
SECTION
  2
OBJECTS
  0
DICTIONARY
  5
C
330
0
100
AcDbDictionary
281
     1
  3
ACAD_DETAILVIEWSTYLE
350
360
  3
ACAD_GROUP
350
D
  3
ACAD_LAYOUT
350
1A
  3
ACAD_MATERIAL
350
43
  3
ACAD_MLEADERSTYLE
350
6B
  3
ACAD_MLINESTYLE
350
17
  3
ACAD_PLOTSETTINGS
350
19
  3
ACAD_PLOTSTYLENAME
350
E
  3
ACAD_SCALELIST
350
47
  3
ACAD_SECTIONVIEWSTYLE
350
361
  3
ACAD_TABLESTYLE
350
69
  3
ACAD_VISUALSTYLE
350
2A
  3
ACDB_RECOMPOSE_DATA
350
35D
  3
AcDbVariableDictionary
350
31D
  0
DICTIONARY
  5
31B
330
8
100
AcDbDictionary
280
     1
281
     1
  3
ACAD_XREC_ROUNDTRIP
360
31C
  0
DICTIONARY
  5
360
102
{ACAD_REACTORS
330
C
102
}
330
C
100
AcDbDictionary
281
     1
  0
DICTIONARY
  5
D
102
{ACAD_REACTORS
330
C
102
}
330
C
100
AcDbDictionary
281
     1
  0
DICTIONARY
  5
1A
102
{ACAD_REACTORS
330
C
102
}
330
C
100
AcDbDictionary
281
     1
  3
Layout1
350
1E
  3
Layout2
350
26
  3
Model
350
22
  0
DICTIONARY
  5
43
102
{ACAD_REACTORS
330
C
102
}
330
C
100
AcDbDictionary
281
     1
  3
ByBlock
350
45
  3
ByLayer
350
44
  3
Global
350
46
  0
DICTIONARY
  5
6B
102
{ACAD_REACTORS
330
C
102
}
330
C
100
AcDbDictionary
281
     1
  3
Standard
350
6C
  0
DICTIONARY
  5
17
102
{ACAD_REACTORS
330
C
102
}
330
C
100
AcDbDictionary
281
     1
  3
Standard
350
18
  0
DICTIONARY
  5
19
102
{ACAD_REACTORS
330
C
102
}
330
C
100
AcDbDictionary
281
     1
  0
ACDBDICTIONARYWDFLT
  5
E
102
{ACAD_REACTORS
330
C
102
}
330
C
100
AcDbDictionary
281
     1
  3
Normal
350
F
100
AcDbDictionaryWithDefault
340
F
  0
DICTIONARY
  5
47
102
{ACAD_REACTORS
330
C
102
}
330
C
100
AcDbDictionary
281
     1
  3
A0
350
48
  3
A1
350
49
  3
A2
350
4A
  3
A3
350
4B
  3
A4
350
4C
  3
A5
350
4D
  3
A6
350
4E
  3
A7
350
4F
  3
A8
350
50
  3
A9
350
51
  3
B0
350
52
  3
B1
350
53
  3
B2
350
54
  3
B3
350
55
  3
B4
350
56
  3
B5
350
57
  3
B6
350
58
  3
B7
350
59
  3
B8
350
5A
  3
B9
350
5B
  3
C0
350
5C
  3
C1
350
5D
  3
C2
350
5E
  3
C3
350
5F
  3
C4
350
60
  3
C5
350
61
  3
C6
350
62
  3
C7
350
63
  3
C8
350
64
  3
C9
350
65
  3
D0
350
66
  3
D1
350
67
  3
D2
350
68
  0
DICTIONARY
  5
361
102
{ACAD_REACTORS
330
C
102
}
330
C
100
AcDbDictionary
281
     1
  0
DICTIONARY
  5
69
102
{ACAD_REACTORS
330
C
102
}
330
C
100
AcDbDictionary
281
     1
  3
Standard
350
6A
  0
DICTIONARY
  5
2A
102
{ACAD_REACTORS
330
C
102
}
330
C
100
AcDbDictionary
281
     1
  3
2dWireframe
350
2F
  3
Basic
350
32
  3
Brighten
350
36
  3
ColorChange
350
3A
  3
Conceptual
350
34
  3
Dim
350
35
  3
EdgeColorOff
350
3D
  3
Facepattern
350
39
  3
Flat
350
2B
  3
FlatWithEdges
350
2C
  3
Gouraud
350
2D
  3
GouraudWithEdges
350
2E
  3
Hidden
350
31
  3
JitterOff
350
3B
  3
Linepattern
350
38
  3
OverhangOff
350
3C
  3
Realistic
350
33
  3
Shaded
350
42
  3
Shaded with edges
350
41
  3
Shades of Gray
350
3E
  3
Sketchy
350
3F
  3
Thicken
350
37
  3
Wireframe
350
30
  3
X-Ray
350
40
  0
XRECORD
  5
35D
102
{ACAD_REACTORS
330
C
102
}
330
C
100
AcDbXrecord
280
     1
 90
        1
330
6A
  0
DICTIONARY
  5
31D
102
{ACAD_REACTORS
330
C
102
}
330
C
100
AcDbDictionary
281
     1
  3
CANNOSCALE
350
31E
  3
CMLEADERSTYLE
350
35F
  3
CTABLESTYLE
350
35E
  3
MSLTSCALE
350
31F
  3
XCLIPFRAME
350
320
  0
XRECORD
  5
31C
102
{ACAD_REACTORS
330
31B
102
}
330
31B
100
AcDbXrecord
280
     1
102
VTR_0.000_0.000_1.000_1.000_GRIDDISPLAY
 70
     3
102
VTR_0.000_0.000_1.000_1.000_GRIDMAJOR
 70
     5
102
VTR_0.000_0.000_1.000_1.000_DEFAULTLIGHTING
280
     1
102
VTR_0.000_0.000_1.000_1.000_DEFAULTLIGHTINGTYPE
 70
     1
102
VTR_0.000_0.000_1.000_1.000_BRIGHTNESS
141
0.0
102
VTR_0.000_0.000_1.000_1.000_CONTRAST
142
0.0
  0
LAYOUT
  5
1E
102
{ACAD_REACTORS
330
1A
102
}
330
1A
100
AcDbPlotSettings
  1

  2
none_device
  4

  6

 40
0.0
 41
0.0
 42
0.0
 43
0.0
 44
0.0
 45
0.0
 46
0.0
 47
0.0
 48
0.0
 49
0.0
140
0.0
141
0.0
142
1.0
143
1.0
 70
   688
 72
     0
 73
     0
 74
     5
  7

 75
    16
 76
     0
 77
     2
 78
   300
147
1.0
148
0.0
149
0.0
100
AcDbLayout
  1
Layout1
 70
     1
 71
     1
 10
0.0
 20
0.0
 11
12.0
 21
9.0
 12
0.0
 22
0.0
 32
0.0
 14
1.000000000000000E+20
 24
1.000000000000000E+20
 34
1.000000000000000E+20
 15
-1.000000000000000E+20
 25
-1.000000000000000E+20
 35
-1.000000000000000E+20
146
0.0
 13
0.0
 23
0.0
 33
0.0
 16
1.0
 26
0.0
 36
0.0
 17
0.0
 27
1.0
 37
0.0
 76
     0
330
1B
  0
LAYOUT
  5
26
102
{ACAD_REACTORS
330
1A
102
}
330
1A
100
AcDbPlotSettings
  1

  2
none_device
  4

  6

 40
0.0
 41
0.0
 42
0.0
 43
0.0
 44
0.0
 45
0.0
 46
0.0
 47
0.0
 48
0.0
 49
0.0
140
0.0
141
0.0
142
1.0
143
1.0
 70
   688
 72
     0
 73
     0
 74
     5
  7

 75
    16
 76
     0
 77
     2
 78
   300
147
1.0
148
0.0
149
0.0
100
AcDbLayout
  1
Layout2
 70
     1
 71
     2
 10
0.0
 20
0.0
 11
0.0
 21
0.0
 12
0.0
 22
0.0
 32
0.0
 14
0.0
 24
0.0
 34
0.0
 15
0.0
 25
0.0
 35
0.0
146
0.0
 13
0.0
 23
0.0
 33
0.0
 16
1.0
 26
0.0
 36
0.0
 17
0.0
 27
1.0
 37
0.0
 76
     0
330
23
  0
LAYOUT
  5
22
102
{ACAD_REACTORS
330
1A
102
}
330
1A
100
AcDbPlotSettings
  1

  2
none_device
  4
Letter_(8.50_x_11.00_Inches)
  6

 40
6.35
 41
6.35
 42
6.35000508
 43
6.35000508
 44
215.9
 45
279.4
 46
0.0
 47
0.0
 48
0.0
 49
0.0
140
0.0
141
0.0
142
1.0
143
1.0
 70
  1712
 72
     0
 73
     0
 74
     0
  7

 75
     0
 76
     0
 77
     2
 78
   300
147
1.0
148
0.0
149
0.0
100
AcDbLayout
  1
Model
 70
     1
 71
     0
 10
0.0
 20
0.0
 11
12.0
 21
9.0
 12
0.0
 22
0.0
 32
0.0
 14
-68.09816625139
 24
-50.16058204665214
 34
0.0
 15
-30.37056082418962
 25
-8.258551965699564
 35
0.0
146
0.0
 13
0.0
 23
0.0
 33
0.0
 16
1.0
 26
0.0
 36
0.0
 17
0.0
 27
1.0
 37
0.0
 76
     0
330
1F
331
29
  0
MATERIAL
  5
45
102
{ACAD_REACTORS
330
43
102
}
102
{ACAD_XDICTIONARY
360
353
102
}
330
43
100
AcDbMaterial
  1
ByBlock
  0
MATERIAL
  5
44
102
{ACAD_REACTORS
330
43
102
}
102
{ACAD_XDICTIONARY
360
351
102
}
330
43
100
AcDbMaterial
  1
ByLayer
  0
MATERIAL
  5
46
102
{ACAD_REACTORS
330
43
102
}
102
{ACAD_XDICTIONARY
360
355
102
}
330
43
100
AcDbMaterial
  1
Global
  0
MLEADERSTYLE
  5
6C
102
{ACAD_REACTORS
330
6B
102
}
102
{ACAD_XDICTIONARY
360
35B
102
}
330
6B
100
AcDbMLeaderStyle
170
     2
171
     1
172
     0
 90
        2
 40
0.0
 41
0.0
173
     1
 91
-1056964608
340
14
 92
       -2
290
     1
 42
0.09
291
     1
 43
0.36
  3
Standard
341
0
 44
0.18
300

342
11
174
     1
178
     6
175
     1
176
     0
 93
-1056964608
 45
0.18
292
     0
297
     0
 46
0.18
343
0
 94
-1056964608
 47
1.0
 49
1.0
140
1.0
293
     1
141
0.0
294
     1
177
     0
142
1.0
295
     0
296
     0
143
0.125
1001
ACAD_MLEADERVER
1070
     2
  0
MLINESTYLE
  5
18
102
{ACAD_REACTORS
330
17
102
}
330
17
100
AcDbMlineStyle
  2
Standard
 70
     0
  3

 62
   256
 51
90.0
 52
90.0
 71
     2
 49
0.5
 62
   256
  6
BYLAYER
 49
-0.5
 62
   256
  6
BYLAYER
  0
ACDBPLACEHOLDER
  5
F
102
{ACAD_REACTORS
330
E
102
}
330
E
  0
SCALE
  5
48
102
{ACAD_REACTORS
330
47
102
}
330
47
100
AcDbScale
 70
     0
300
1:1
140
1.0
141
1.0
290
     1
  0
SCALE
  5
49
102
{ACAD_REACTORS
330
47
102
}
330
47
100
AcDbScale
 70
     0
300
1:2
140
1.0
141
2.0
290
     0
  0
SCALE
  5
4A
102
{ACAD_REACTORS
330
47
102
}
330
47
100
AcDbScale
 70
     0
300
1:4
140
1.0
141
4.0
290
     0
  0
SCALE
  5
4B
102
{ACAD_REACTORS
330
47
102
}
330
47
100
AcDbScale
 70
     0
300
1:5
140
1.0
141
5.0
290
     0
  0
SCALE
  5
4C
102
{ACAD_REACTORS
330
47
102
}
330
47
100
AcDbScale
 70
     0
300
1:8
140
1.0
141
8.0
290
     0
  0
SCALE
  5
4D
102
{ACAD_REACTORS
330
47
102
}
330
47
100
AcDbScale
 70
     0
300
1:10
140
1.0
141
10.0
290
     0
  0
SCALE
  5
4E
102
{ACAD_REACTORS
330
47
102
}
330
47
100
AcDbScale
 70
     0
300
1:16
140
1.0
141
16.0
290
     0
  0
SCALE
  5
4F
102
{ACAD_REACTORS
330
47
102
}
330
47
100
AcDbScale
 70
     0
300
1:20
140
1.0
141
20.0
290
     0
  0
SCALE
  5
50
102
{ACAD_REACTORS
330
47
102
}
330
47
100
AcDbScale
 70
     0
300
1:30
140
1.0
141
30.0
290
     0
  0
SCALE
  5
51
102
{ACAD_REACTORS
330
47
102
}
330
47
100
AcDbScale
 70
     0
300
1:40
140
1.0
141
40.0
290
     0
  0
SCALE
  5
52
102
{ACAD_REACTORS
330
47
102
}
330
47
100
AcDbScale
 70
     0
300
1:50
140
1.0
141
50.0
290
     0
  0
SCALE
  5
53
102
{ACAD_REACTORS
330
47
102
}
330
47
100
AcDbScale
 70
     0
300
1:100
140
1.0
141
100.0
290
     0
  0
SCALE
  5
54
102
{ACAD_REACTORS
330
47
102
}
330
47
100
AcDbScale
 70
     0
300
2:1
140
2.0
141
1.0
290
     0
  0
SCALE
  5
55
102
{ACAD_REACTORS
330
47
102
}
330
47
100
AcDbScale
 70
     0
300
4:1
140
4.0
141
1.0
290
     0
  0
SCALE
  5
56
102
{ACAD_REACTORS
330
47
102
}
330
47
100
AcDbScale
 70
     0
300
8:1
140
8.0
141
1.0
290
     0
  0
SCALE
  5
57
102
{ACAD_REACTORS
330
47
102
}
330
47
100
AcDbScale
 70
     0
300
10:1
140
10.0
141
1.0
290
     0
  0
SCALE
  5
58
102
{ACAD_REACTORS
330
47
102
}
330
47
100
AcDbScale
 70
     0
300
100:1
140
100.0
141
1.0
290
     0
  0
SCALE
  5
59
102
{ACAD_REACTORS
330
47
102
}
330
47
100
AcDbScale
 70
     0
300
1/128" = 1'-0"
140
0.0078125
141
12.0
290
     0
  0
SCALE
  5
5A
102
{ACAD_REACTORS
330
47
102
}
330
47
100
AcDbScale
 70
     0
300
1/64" = 1'-0"
140
0.015625
141
12.0
290
     0
  0
SCALE
  5
5B
102
{ACAD_REACTORS
330
47
102
}
330
47
100
AcDbScale
 70
     0
300
1/32" = 1'-0"
140
0.03125
141
12.0
290
     0
  0
SCALE
  5
5C
102
{ACAD_REACTORS
330
47
102
}
330
47
100
AcDbScale
 70
     0
300
1/16" = 1'-0"
140
0.0625
141
12.0
290
     0
  0
SCALE
  5
5D
102
{ACAD_REACTORS
330
47
102
}
330
47
100
AcDbScale
 70
     0
300
3/32" = 1'-0"
140
0.09375
141
12.0
290
     0
  0
SCALE
  5
5E
102
{ACAD_REACTORS
330
47
102
}
330
47
100
AcDbScale
 70
     0
300
1/8" = 1'-0"
140
0.125
141
12.0
290
     0
  0
SCALE
  5
5F
102
{ACAD_REACTORS
330
47
102
}
330
47
100
AcDbScale
 70
     0
300
3/16" = 1'-0"
140
0.1875
141
12.0
290
     0
  0
SCALE
  5
60
102
{ACAD_REACTORS
330
47
102
}
330
47
100
AcDbScale
 70
     0
300
1/4" = 1'-0"
140
0.25
141
12.0
290
     0
  0
SCALE
  5
61
102
{ACAD_REACTORS
330
47
102
}
330
47
100
AcDbScale
 70
     0
300
3/8" = 1'-0"
140
0.375
141
12.0
290
     0
  0
SCALE
  5
62
102
{ACAD_REACTORS
330
47
102
}
330
47
100
AcDbScale
 70
     0
300
1/2" = 1'-0"
140
0.5
141
12.0
290
     0
  0
SCALE
  5
63
102
{ACAD_REACTORS
330
47
102
}
330
47
100
AcDbScale
 70
     0
300
3/4" = 1'-0"
140
0.75
141
12.0
290
     0
  0
SCALE
  5
64
102
{ACAD_REACTORS
330
47
102
}
330
47
100
AcDbScale
 70
     0
300
1" = 1'-0"
140
1.0
141
12.0
290
     0
  0
SCALE
  5
65
102
{ACAD_REACTORS
330
47
102
}
330
47
100
AcDbScale
 70
     0
300
1-1/2" = 1'-0"
140
1.5
141
12.0
290
     0
  0
SCALE
  5
66
102
{ACAD_REACTORS
330
47
102
}
330
47
100
AcDbScale
 70
     0
300
3" = 1'-0"
140
3.0
141
12.0
290
     0
  0
SCALE
  5
67
102
{ACAD_REACTORS
330
47
102
}
330
47
100
AcDbScale
 70
     0
300
6" = 1'-0"
140
6.0
141
12.0
290
     0
  0
SCALE
  5
68
102
{ACAD_REACTORS
330
47
102
}
330
47
100
AcDbScale
 70
     0
300
1'-0" = 1'-0"
140
12.0
141
12.0
290
     0
  0
TABLESTYLE
  5
6A
102
{ACAD_REACTORS
330
69
102
}
102
{ACAD_XDICTIONARY
360
357
102
}
330
69
100
AcDbTableStyle
  3
Standard
 70
     0
 71
     0
 40
0.06
 41
0.06
280
     0
281
     0
  7
Standard
140
0.18
170
     2
 62
     0
 63
   257
283
     0
274
    -2
284
     1
 64
     0
275
    -2
285
     1
 65
     0
276
    -2
286
     1
 66
     0
277
    -2
287
     1
 67
     0
278
    -2
288
     1
 68
     0
279
    -2
289
     1
 69
     0
  7
Standard
140
0.25
170
     5
 62
     0
 63
   257
283
     0
274
    -2
284
     1
 64
     0
275
    -2
285
     1
 65
     0
276
    -2
286
     1
 66
     0
277
    -2
287
     1
 67
     0
278
    -2
288
     1
 68
     0
279
    -2
289
     1
 69
     0
  7
Standard
140
0.18
170
     5
 62
     0
 63
   257
283
     0
274
    -2
284
     1
 64
     0
275
    -2
285
     1
 65
     0
276
    -2
286
     1
 66
     0
277
    -2
287
     1
 67
     0
278
    -2
288
     1
 68
     0
279
    -2
289
     1
 69
     0
  0
VISUALSTYLE
  5
2F
102
{ACAD_REACTORS
330
2A
102
}
102
{ACAD_XDICTIONARY
360
329
102
}
330
2A
100
AcDbVisualStyle
  2
2dWireframe
 70
     4
 71
     0
 72
     2
 73
     0
 90
        0
 40
0.6
 41
30.0
 62
     5
 63
     7
421
 16777215
 74
     1
 91
        4
 64
     7
 65
   257
 75
     1
175
     1
 42
1.0
 92
        0
 66
   257
 43
1.0
 76
     1
 77
     6
 78
     2
 67
     7
 79
     5
170
     0
171
     0
290
     0
174
     0
 93
        1
 44
0.0
173
     0
291
     0
 45
0.0
1001
ACAD
1000
AcDbSavedByObjectVersion
1070
     0
  0
VISUALSTYLE
  5
32
102
{ACAD_REACTORS
330
2A
102
}
102
{ACAD_XDICTIONARY
360
32F
102
}
330
2A
100
AcDbVisualStyle
  2
Basic
 70
     7
 71
     1
 72
     0
 73
     1
 90
        0
 40
0.6
 41
30.0
 62
     5
 63
     7
421
 16777215
 74
     0
 91
        4
 64
     7
 65
   257
 75
     1
175
     1
 42
1.0
 92
        8
 66
     7
 43
1.0
 76
     1
 77
     6
 78
     2
 67
     7
 79
     5
170
     0
171
     0
290
     0
174
     0
 93
        1
 44
0.0
173
     0
291
     1
 45
0.0
1001
ACAD
1000
AcDbSavedByObjectVersion
1070
     0
  0
VISUALSTYLE
  5
36
102
{ACAD_REACTORS
330
2A
102
}
102
{ACAD_XDICTIONARY
360
337
102
}
330
2A
100
AcDbVisualStyle
  2
Brighten
 70
    12
 71
     2
 72
     2
 73
     0
 90
        0
 40
0.6
 41
30.0
 62
     5
 63
     7
421
 16777215
 74
     1
 91
        4
 64
     7
 65
   257
 75
     1
175
     1
 42
1.0
 92
        8
 66
     7
 43
1.0
 76
     1
 77
     6
 78
     2
 67
     7
 79
     5
170
     0
171
     0
290
     0
174
     0
 93
        1
 44
50.0
173
     0
291
     1
 45
0.0
1001
ACAD
1000
AcDbSavedByObjectVersion
1070
     0
  0
VISUALSTYLE
  5
3A
102
{ACAD_REACTORS
330
2A
102
}
102
{ACAD_XDICTIONARY
360
33F
102
}
330
2A
100
AcDbVisualStyle
  2
ColorChange
 70
    16
 71
     2
 72
     2
 73
     3
 90
        0
 40
0.6
 41
30.0
 62
     5
 63
     8
421
  8421504
 74
     1
 91
        4
 64
     7
 65
   257
 75
     1
175
     1
 42
1.0
 92
        8
 66
     8
424
  8421504
 43
1.0
 76
     1
 77
     6
 78
     2
 67
     7
 79
     5
170
     0
171
     0
290
     0
174
     0
 93
        1
 44
0.0
173
     0
291
     1
 45
0.0
1001
ACAD
1000
AcDbSavedByObjectVersion
1070
     0
  0
VISUALSTYLE
  5
34
102
{ACAD_REACTORS
330
2A
102
}
102
{ACAD_XDICTIONARY
360
333
102
}
330
2A
100
AcDbVisualStyle
  2
Conceptual
 70
     9
 71
     3
 72
     2
 73
     0
 90
        0
 40
0.6
 41
30.0
 62
     5
 63
     7
421
 16777215
 74
     2
 91
        2
 64
     7
 65
   257
 75
     1
175
     1
 42
179.0
 92
        8
 66
     7
 43
1.0
 76
     1
 77
     6
 78
     2
 67
     7
 79
     3
170
     0
171
     0
290
     0
174
     0
 93
        1
 44
0.0
173
     0
291
     0
 45
0.0
1001
ACAD
1000
AcDbSavedByObjectVersion
1070
     0
  0
VISUALSTYLE
  5
35
102
{ACAD_REACTORS
330
2A
102
}
102
{ACAD_XDICTIONARY
360
335
102
}
330
2A
100
AcDbVisualStyle
  2
Dim
 70
    11
 71
     2
 72
     2
 73
     0
 90
        0
 40
0.6
 41
30.0
 62
     5
 63
     7
421
 16777215
 74
     1
 91
        4
 64
     7
 65
   257
 75
     1
175
     1
 42
1.0
 92
        8
 66
     7
 43
1.0
 76
     1
 77
     6
 78
     2
 67
     7
 79
     5
170
     0
171
     0
290
     0
174
     0
 93
        1
 44
-50.0
173
     0
291
     1
 45
0.0
1001
ACAD
1000
AcDbSavedByObjectVersion
1070
     0
  0
VISUALSTYLE
  5
3D
102
{ACAD_REACTORS
330
2A
102
}
102
{ACAD_XDICTIONARY
360
345
102
}
330
2A
100
AcDbVisualStyle
  2
EdgeColorOff
 70
    22
 71
     2
 72
     2
 73
     0
 90
        0
 40
0.6
 41
30.0
 62
     5
 63
     7
421
 16777215
 74
     1
 91
        4
 64
     7
 65
   257
 75
     1
175
     1
 42
1.0
 92
        8
 66
     7
 43
1.0
 76
     1
 77
     6
 78
     2
 67
     7
 79
     5
170
     0
171
     0
290
     0
174
     0
 93
        1
 44
0.0
173
     0
291
     1
 45
0.0
1001
ACAD
1000
AcDbSavedByObjectVersion
1070
     0
  0
VISUALSTYLE
  5
39
102
{ACAD_REACTORS
330
2A
102
}
102
{ACAD_XDICTIONARY
360
33D
102
}
330
2A
100
AcDbVisualStyle
  2
Facepattern
 70
    15
 71
     2
 72
     2
 73
     0
 90
        0
 40
0.6
 41
30.0
 62
     5
 63
     7
421
 16777215
 74
     1
 91
        4
 64
     7
 65
   257
 75
     1
175
     1
 42
1.0
 92
        8
 66
     7
 43
1.0
 76
     1
 77
     6
 78
     2
 67
     7
 79
     5
170
     0
171
     0
290
     0
174
     0
 93
        1
 44
0.0
173
     0
291
     1
 45
0.0
1001
ACAD
1000
AcDbSavedByObjectVersion
1070
     0
  0
VISUALSTYLE
  5
2B
102
{ACAD_REACTORS
330
2A
102
}
102
{ACAD_XDICTIONARY
360
321
102
}
330
2A
100
AcDbVisualStyle
  2
Flat
 70
     0
 71
     2
 72
     1
 73
     1
 90
        2
 40
0.6
 41
30.0
 62
     5
 63
     7
421
 16777215
 74
     0
 91
        0
 64
     7
 65
   257
 75
     1
175
     1
 42
1.0
 92
        8
 66
     7
 43
1.0
 76
     1
 77
     6
 78
     2
 67
     7
 79
     5
170
     0
171
     0
290
     0
174
     0
 93
       13
 44
0.0
173
     0
291
     1
 45
0.0
1001
ACAD
1000
AcDbSavedByObjectVersion
1070
     0
  0
VISUALSTYLE
  5
2C
102
{ACAD_REACTORS
330
2A
102
}
102
{ACAD_XDICTIONARY
360
323
102
}
330
2A
100
AcDbVisualStyle
  2
FlatWithEdges
 70
     1
 71
     2
 72
     1
 73
     1
 90
        2
 40
0.6
 41
30.0
 62
     5
 63
     7
421
 16777215
 74
     1
 91
        0
 64
     7
 65
   257
 75
     1
175
     1
 42
1.0
 92
        0
 66
   257
 43
1.0
 76
     1
 77
     6
 78
     2
 67
     7
 79
     5
170
     0
171
     0
290
     0
174
     0
 93
       13
 44
0.0
173
     0
291
     1
 45
0.0
1001
ACAD
1000
AcDbSavedByObjectVersion
1070
     0
  0
VISUALSTYLE
  5
2D
102
{ACAD_REACTORS
330
2A
102
}
102
{ACAD_XDICTIONARY
360
325
102
}
330
2A
100
AcDbVisualStyle
  2
Gouraud
 70
     2
 71
     2
 72
     2
 73
     1
 90
        2
 40
0.6
 41
30.0
 62
     5
 63
     7
421
 16777215
 74
     0
 91
        0
 64
     7
 65
   257
 75
     1
175
     1
 42
1.0
 92
        0
 66
     7
 43
1.0
 76
     1
 77
     6
 78
     2
 67
     7
 79
     5
170
     0
171
     0
290
     0
174
     0
 93
       13
 44
0.0
173
     0
291
     1
 45
0.0
1001
ACAD
1000
AcDbSavedByObjectVersion
1070
     0
  0
VISUALSTYLE
  5
2E
102
{ACAD_REACTORS
330
2A
102
}
102
{ACAD_XDICTIONARY
360
327
102
}
330
2A
100
AcDbVisualStyle
  2
GouraudWithEdges
 70
     3
 71
     2
 72
     2
 73
     1
 90
        2
 40
0.6
 41
30.0
 62
     5
 63
     7
421
 16777215
 74
     1
 91
        0
 64
     7
 65
   257
 75
     1
175
     1
 42
1.0
 92
        0
 66
   257
 43
1.0
 76
     1
 77
     6
 78
     2
 67
     7
 79
     5
170
     0
171
     0
290
     0
174
     0
 93
       13
 44
0.0
173
     0
291
     1
 45
0.0
1001
ACAD
1000
AcDbSavedByObjectVersion
1070
     0
  0
VISUALSTYLE
  5
31
102
{ACAD_REACTORS
330
2A
102
}
102
{ACAD_XDICTIONARY
360
32D
102
}
330
2A
100
AcDbVisualStyle
  2
Hidden
 70
     6
 71
     1
 72
     2
 73
     2
 90
        0
 40
0.6
 41
30.0
 62
     5
 63
     7
421
 16777215
 74
     2
 91
        2
 64
     7
 65
   257
 75
     2
175
     1
 42
40.0
 92
        0
 66
   257
 43
1.0
 76
     1
 77
     6
 78
     2
 67
     7
 79
     3
170
     0
171
     0
290
     0
174
     0
 93
        1
 44
0.0
173
     0
291
     0
 45
0.0
1001
ACAD
1000
AcDbSavedByObjectVersion
1070
     0
  0
VISUALSTYLE
  5
3B
102
{ACAD_REACTORS
330
2A
102
}
102
{ACAD_XDICTIONARY
360
341
102
}
330
2A
100
AcDbVisualStyle
  2
JitterOff
 70
    20
 71
     2
 72
     2
 73
     0
 90
        0
 40
0.6
 41
30.0
 62
     5
 63
     7
421
 16777215
 74
     1
 91
        4
 64
     7
 65
   257
 75
     1
175
     1
 42
1.0
 92
       10
 66
     7
 43
1.0
 76
     1
 77
     6
 78
     2
 67
     7
 79
     5
170
     0
171
     0
290
     0
174
     0
 93
        1
 44
0.0
173
     0
291
     1
 45
0.0
1001
ACAD
1000
AcDbSavedByObjectVersion
1070
     0
  0
VISUALSTYLE
  5
38
102
{ACAD_REACTORS
330
2A
102
}
102
{ACAD_XDICTIONARY
360
33B
102
}
330
2A
100
AcDbVisualStyle
  2
Linepattern
 70
    14
 71
     2
 72
     2
 73
     0
 90
        0
 40
0.6
 41
30.0
 62
     5
 63
     7
421
 16777215
 74
     1
 91
        4
 64
     7
 65
   257
 75
     7
175
     7
 42
1.0
 92
        8
 66
     7
 43
1.0
 76
     1
 77
     6
 78
     2
 67
     7
 79
     5
170
     0
171
     0
290
     0
174
     0
 93
        1
 44
0.0
173
     0
291
     1
 45
0.0
1001
ACAD
1000
AcDbSavedByObjectVersion
1070
     0
  0
VISUALSTYLE
  5
3C
102
{ACAD_REACTORS
330
2A
102
}
102
{ACAD_XDICTIONARY
360
343
102
}
330
2A
100
AcDbVisualStyle
  2
OverhangOff
 70
    21
 71
     2
 72
     2
 73
     0
 90
        0
 40
0.6
 41
30.0
 62
     5
 63
     7
421
 16777215
 74
     1
 91
        4
 64
     7
 65
   257
 75
     1
175
     1
 42
1.0
 92
        9
 66
     7
 43
1.0
 76
     1
 77
     6
 78
     2
 67
     7
 79
     5
170
     0
171
     0
290
     0
174
     0
 93
        1
 44
0.0
173
     0
291
     1
 45
0.0
1001
ACAD
1000
AcDbSavedByObjectVersion
1070
     0
  0
VISUALSTYLE
  5
33
102
{ACAD_REACTORS
330
2A
102
}
102
{ACAD_XDICTIONARY
360
331
102
}
330
2A
100
AcDbVisualStyle
  2
Realistic
 70
     8
 71
     2
 72
     3
 73
     0
 90
        2
 40
0.6
 41
30.0
 62
     5
 63
     7
421
 16777215
 74
     0
 91
        0
 64
     7
 65
   257
 75
     1
175
     1
 42
1.0
 92
        8
 66
   257
 43
1.0
 76
     1
 77
     6
 78
     2
 67
     7
 79
     3
170
     0
171
     0
290
     0
174
     0
 93
       13
 44
0.0
173
     0
291
     0
 45
0.0
1001
ACAD
1000
AcDbSavedByObjectVersion
1070
     0
  0
VISUALSTYLE
  5
42
102
{ACAD_REACTORS
330
2A
102
}
102
{ACAD_XDICTIONARY
360
34F
102
}
330
2A
100
AcDbVisualStyle
  2
Shaded
 70
    27
 71
     2
 72
     2
 73
     1
 90
        2
 40
0.6
 41
30.0
 62
     5
 63
     7
421
 16777215
 74
     0
 91
        4
 64
     7
 65
   257
 75
     1
175
     1
 42
1.0
 92
        8
 66
   257
 43
1.0
 76
     1
 77
     6
 78
     2
 67
     8
425
  7895160
 79
     3
170
     0
171
     0
290
     0
174
     0
 93
        5
 44
0.0
173
     0
291
     0
 45
0.0
1001
ACAD
1000
AcDbSavedByObjectVersion
1070
     0
  0
VISUALSTYLE
  5
41
102
{ACAD_REACTORS
330
2A
102
}
102
{ACAD_XDICTIONARY
360
34D
102
}
330
2A
100
AcDbVisualStyle
  2
Shaded with edges
 70
    26
 71
     2
 72
     2
 73
     1
 90
        2
 40
0.6
 41
30.0
 62
     5
 63
     7
421
 16777215
 74
     1
 91
       10
 64
     7
 65
   257
 75
     2
175
     1
 42
1.0
 92
        8
 66
   257
 43
1.0
 76
     1
 77
     6
 78
     2
 67
     7
 79
     3
170
     0
171
     0
290
     0
174
     0
 93
        5
 44
0.0
173
     0
291
     0
 45
0.0
1001
ACAD
1000
AcDbSavedByObjectVersion
1070
     0
  0
VISUALSTYLE
  5
3E
102
{ACAD_REACTORS
330
2A
102
}
102
{ACAD_XDICTIONARY
360
347
102
}
330
2A
100
AcDbVisualStyle
  2
Shades of Gray
 70
    23
 71
     2
 72
     2
 73
     3
 90
        0
 40
0.6
 41
30.0
 62
     5
 63
     7
421
 16777215
 74
     2
 91
        2
 64
     7
 65
     7
 75
     1
175
     1
 42
40.0
 92
        8
 66
     7
 43
1.0
 76
     1
 77
     6
 78
     2
 67
     7
 79
     3
170
     0
171
     0
290
     0
174
     0
 93
        1
 44
0.0
173
     0
291
     0
 45
0.0
1001
ACAD
1000
AcDbSavedByObjectVersion
1070
     0
  0
VISUALSTYLE
  5
3F
102
{ACAD_REACTORS
330
2A
102
}
102
{ACAD_XDICTIONARY
360
349
102
}
330
2A
100
AcDbVisualStyle
  2
Sketchy
 70
    24
 71
     1
 72
     2
 73
     2
 90
        0
 40
0.6
 41
30.0
 62
     5
 63
     7
421
 16777215
 74
     2
 91
        2
 64
     7
 65
     7
 75
     1
175
     1
 42
40.0
 92
       11
 66
     7
 43
1.0
 76
     1
 77
     6
 78
     2
 67
     7
 79
     6
170
     0
171
     0
290
     0
174
     0
 93
        1
 44
0.0
173
     0
291
     0
 45
0.0
1001
ACAD
1000
AcDbSavedByObjectVersion
1070
     0
  0
VISUALSTYLE
  5
37
102
{ACAD_REACTORS
330
2A
102
}
102
{ACAD_XDICTIONARY
360
339
102
}
330
2A
100
AcDbVisualStyle
  2
Thicken
 70
    13
 71
     2
 72
     2
 73
     0
 90
        0
 40
0.6
 41
30.0
 62
     5
 63
     7
421
 16777215
 74
     1
 91
        4
 64
     7
 65
   257
 75
     1
175
     1
 42
1.0
 92
       12
 66
     7
 43
1.0
 76
     1
 77
     6
 78
     2
 67
     7
 79
     5
170
     0
171
     0
290
     0
174
     0
 93
        1
 44
0.0
173
     0
291
     1
 45
0.0
1001
ACAD
1000
AcDbSavedByObjectVersion
1070
     0
  0
VISUALSTYLE
  5
30
102
{ACAD_REACTORS
330
2A
102
}
102
{ACAD_XDICTIONARY
360
32B
102
}
330
2A
100
AcDbVisualStyle
  2
Wireframe
 70
     5
 71
     0
 72
     2
 73
     0
 90
        0
 40
0.6
 41
30.0
 62
     5
 63
     7
421
 16777215
 74
     1
 91
        4
 64
     7
 65
   257
 75
     1
175
     1
 42
1.0
 92
        0
 66
   257
 43
1.0
 76
     1
 77
     6
 78
     2
 67
     7
 79
     3
170
     0
171
     0
290
     0
174
     0
 93
        1
 44
0.0
173
     0
291
     0
 45
0.0
1001
ACAD
1000
AcDbSavedByObjectVersion
1070
     0
  0
VISUALSTYLE
  5
40
102
{ACAD_REACTORS
330
2A
102
}
102
{ACAD_XDICTIONARY
360
34B
102
}
330
2A
100
AcDbVisualStyle
  2
X-Ray
 70
    25
 71
     2
 72
     2
 73
     1
 90
        1
 40
0.5
 41
30.0
 62
     5
 63
     7
421
 16777215
 74
     1
 91
        0
 64
     7
 65
   257
 75
     1
175
     1
 42
1.0
 92
        8
 66
     7
 43
1.0
 76
     1
 77
     6
 78
     2
 67
     7
 79
     3
170
     0
171
     0
290
     0
174
     0
 93
       13
 44
0.0
173
     0
291
     0
 45
0.0
1001
ACAD
1000
AcDbSavedByObjectVersion
1070
     0
  0
DICTIONARYVAR
  5
31E
102
{ACAD_REACTORS
330
31D
102
}
330
31D
100
DictionaryVariables
280
     0
  1
1:1
  0
DICTIONARYVAR
  5
35F
102
{ACAD_REACTORS
330
31D
102
}
330
31D
100
DictionaryVariables
280
     0
  1
Standard
  0
DICTIONARYVAR
  5
35E
102
{ACAD_REACTORS
330
31D
102
}
330
31D
100
DictionaryVariables
280
     0
  1
Standard
  0
DICTIONARYVAR
  5
31F
102
{ACAD_REACTORS
330
31D
102
}
330
31D
100
DictionaryVariables
280
     0
  1
1
  0
DICTIONARYVAR
  5
320
102
{ACAD_REACTORS
330
31D
102
}
330
31D
100
DictionaryVariables
280
     0
  1
2
  0
DICTIONARY
  5
353
330
45
100
AcDbDictionary
280
     1
281
     1
  3
ACAD_XREC_ROUNDTRIP
360
354
  0
DICTIONARY
  5
351
330
44
100
AcDbDictionary
280
     1
281
     1
  3
ACAD_XREC_ROUNDTRIP
360
352
  0
DICTIONARY
  5
355
330
46
100
AcDbDictionary
280
     1
281
     1
  3
ACAD_XREC_ROUNDTRIP
360
356
  0
DICTIONARY
  5
35B
330
6C
100
AcDbDictionary
280
     1
281
     1
  3
ACAD_XREC_ROUNDTRIP
360
35C
  0
DICTIONARY
  5
357
330
6A
100
AcDbDictionary
280
     1
281
     1
  3
ACAD_ROUNDTRIP_2008_TABLESTYLE_CELLSTYLEMAP
360
359
  3
ACAD_XREC_ROUNDTRIP
360
358
  0
DICTIONARY
  5
329
330
2F
100
AcDbDictionary
280
     1
281
     1
  3
ACAD_XREC_ROUNDTRIP
360
32A
  0
DICTIONARY
  5
32F
330
32
100
AcDbDictionary
280
     1
281
     1
  3
ACAD_XREC_ROUNDTRIP
360
330
  0
DICTIONARY
  5
337
330
36
100
AcDbDictionary
280
     1
281
     1
  3
ACAD_XREC_ROUNDTRIP
360
338
  0
DICTIONARY
  5
33F
330
3A
100
AcDbDictionary
280
     1
281
     1
  3
ACAD_XREC_ROUNDTRIP
360
340
  0
DICTIONARY
  5
333
330
34
100
AcDbDictionary
280
     1
281
     1
  3
ACAD_XREC_ROUNDTRIP
360
334
  0
DICTIONARY
  5
335
330
35
100
AcDbDictionary
280
     1
281
     1
  3
ACAD_XREC_ROUNDTRIP
360
336
  0
DICTIONARY
  5
345
330
3D
100
AcDbDictionary
280
     1
281
     1
  3
ACAD_XREC_ROUNDTRIP
360
346
  0
DICTIONARY
  5
33D
330
39
100
AcDbDictionary
280
     1
281
     1
  3
ACAD_XREC_ROUNDTRIP
360
33E
  0
DICTIONARY
  5
321
330
2B
100
AcDbDictionary
280
     1
281
     1
  3
ACAD_XREC_ROUNDTRIP
360
322
  0
DICTIONARY
  5
323
330
2C
100
AcDbDictionary
280
     1
281
     1
  3
ACAD_XREC_ROUNDTRIP
360
324
  0
DICTIONARY
  5
325
330
2D
100
AcDbDictionary
280
     1
281
     1
  3
ACAD_XREC_ROUNDTRIP
360
326
  0
DICTIONARY
  5
327
330
2E
100
AcDbDictionary
280
     1
281
     1
  3
ACAD_XREC_ROUNDTRIP
360
328
  0
DICTIONARY
  5
32D
330
31
100
AcDbDictionary
280
     1
281
     1
  3
ACAD_XREC_ROUNDTRIP
360
32E
  0
DICTIONARY
  5
341
330
3B
100
AcDbDictionary
280
     1
281
     1
  3
ACAD_XREC_ROUNDTRIP
360
342
  0
DICTIONARY
  5
33B
330
38
100
AcDbDictionary
280
     1
281
     1
  3
ACAD_XREC_ROUNDTRIP
360
33C
  0
DICTIONARY
  5
343
330
3C
100
AcDbDictionary
280
     1
281
     1
  3
ACAD_XREC_ROUNDTRIP
360
344
  0
DICTIONARY
  5
331
330
33
100
AcDbDictionary
280
     1
281
     1
  3
ACAD_XREC_ROUNDTRIP
360
332
  0
DICTIONARY
  5
34F
330
42
100
AcDbDictionary
280
     1
281
     1
  3
ACAD_XREC_ROUNDTRIP
360
350
  0
DICTIONARY
  5
34D
330
41
100
AcDbDictionary
280
     1
281
     1
  3
ACAD_XREC_ROUNDTRIP
360
34E
  0
DICTIONARY
  5
347
330
3E
100
AcDbDictionary
280
     1
281
     1
  3
ACAD_XREC_ROUNDTRIP
360
348
  0
DICTIONARY
  5
349
330
3F
100
AcDbDictionary
280
     1
281
     1
  3
ACAD_XREC_ROUNDTRIP
360
34A
  0
DICTIONARY
  5
339
330
37
100
AcDbDictionary
280
     1
281
     1
  3
ACAD_XREC_ROUNDTRIP
360
33A
  0
DICTIONARY
  5
32B
330
30
100
AcDbDictionary
280
     1
281
     1
  3
ACAD_XREC_ROUNDTRIP
360
32C
  0
DICTIONARY
  5
34B
330
40
100
AcDbDictionary
280
     1
281
     1
  3
ACAD_XREC_ROUNDTRIP
360
34C
  0
XRECORD
  5
354
102
{ACAD_REACTORS
330
353
102
}
330
353
100
AcDbXrecord
280
     1
102
MATERIAL
148
0.0
149
0.0
149
0.0
 93
        0
 94
      127
282
     0
 72
     1
 77
     1
171
     1
175
     1
179
     1
273
     0
  0
XRECORD
  5
352
102
{ACAD_REACTORS
330
351
102
}
330
351
100
AcDbXrecord
280
     1
102
MATERIAL
148
0.0
149
0.0
149
0.0
 93
        0
 94
      127
282
     0
 72
     1
 77
     1
171
     1
175
     1
179
     1
273
     0
  0
XRECORD
  5
356
102
{ACAD_REACTORS
330
355
102
}
330
355
100
AcDbXrecord
280
     1
102
MATERIAL
148
0.0
149
0.0
149
0.0
 93
        0
 94
      127
282
     0
 72
     1
 77
     1
171
     1
175
     1
179
     1
273
     0
  0
XRECORD
  5
35C
102
{ACAD_REACTORS
330
35B
102
}
330
35B
100
AcDbXrecord
280
     1
102
ACAD_ROUNDTRIP_2010_MLEADER_STYLE
  0
CELLSTYLEMAP
  5
359
102
{ACAD_REACTORS
330
357
102
}
330
357
100
AcDbCellStyleMap
 90
        3
300
CELLSTYLE
  1
TABLEFORMAT_BEGIN
 90
        5
170
     1
 91
        0
 92
    32768
 62
   257
 93
        1
300
CONTENTFORMAT
  1
CONTENTFORMAT_BEGIN
 90
        0
 91
        0
 92
        4
 93
        0
300

 40
0.0
140
1.0
 94
        5
 62
     0
340
11
144
0.25
309
CONTENTFORMAT_END
171
     1
301
MARGIN
  1
CELLMARGIN_BEGIN
 40
0.06
 40
0.06
 40
0.06
 40
0.06
 40
0.06
 40
0.06
309
CELLMARGIN_END
 94
        6
 95
        1
302
GRIDFORMAT
  1
GRIDFORMAT_BEGIN
 90
        0
 91
        1
 62
     0
 92
       -2
340
14
 93
        0
 40
0.045
309
GRIDFORMAT_END
 95
        2
302
GRIDFORMAT
  1
GRIDFORMAT_BEGIN
 90
        0
 91
        1
 62
     0
 92
       -2
340
14
 93
        0
 40
0.045
309
GRIDFORMAT_END
 95
        4
302
GRIDFORMAT
  1
GRIDFORMAT_BEGIN
 90
        0
 91
        1
 62
     0
 92
       -2
340
14
 93
        0
 40
0.045
309
GRIDFORMAT_END
 95
        8
302
GRIDFORMAT
  1
GRIDFORMAT_BEGIN
 90
        0
 91
        1
 62
     0
 92
       -2
340
14
 93
        0
 40
0.045
309
GRIDFORMAT_END
 95
       16
302
GRIDFORMAT
  1
GRIDFORMAT_BEGIN
 90
        0
 91
        1
 62
     0
 92
       -2
340
14
 93
        0
 40
0.045
309
GRIDFORMAT_END
 95
       32
302
GRIDFORMAT
  1
GRIDFORMAT_BEGIN
 90
        0
 91
        1
 62
     0
 92
       -2
340
14
 93
        0
 40
0.045
309
GRIDFORMAT_END
309
TABLEFORMAT_END
  1
CELLSTYLE_BEGIN
 90
        1
 91
        1
300
_TITLE
309
CELLSTYLE_END
300
CELLSTYLE
  1
TABLEFORMAT_BEGIN
 90
        5
170
     1
 91
        0
 92
        0
 62
   257
 93
        1
300
CONTENTFORMAT
  1
CONTENTFORMAT_BEGIN
 90
        0
 91
        0
 92
        4
 93
        0
300

 40
0.0
140
1.0
 94
        5
 62
     0
340
11
144
0.18
309
CONTENTFORMAT_END
171
     1
301
MARGIN
  1
CELLMARGIN_BEGIN
 40
0.06
 40
0.06
 40
0.06
 40
0.06
 40
0.06
 40
0.06
309
CELLMARGIN_END
 94
        6
 95
        1
302
GRIDFORMAT
  1
GRIDFORMAT_BEGIN
 90
        0
 91
        1
 62
     0
 92
       -2
340
14
 93
        0
 40
0.045
309
GRIDFORMAT_END
 95
        2
302
GRIDFORMAT
  1
GRIDFORMAT_BEGIN
 90
        0
 91
        1
 62
     0
 92
       -2
340
14
 93
        0
 40
0.045
309
GRIDFORMAT_END
 95
        4
302
GRIDFORMAT
  1
GRIDFORMAT_BEGIN
 90
        0
 91
        1
 62
     0
 92
       -2
340
14
 93
        0
 40
0.045
309
GRIDFORMAT_END
 95
        8
302
GRIDFORMAT
  1
GRIDFORMAT_BEGIN
 90
        0
 91
        1
 62
     0
 92
       -2
340
14
 93
        0
 40
0.045
309
GRIDFORMAT_END
 95
       16
302
GRIDFORMAT
  1
GRIDFORMAT_BEGIN
 90
        0
 91
        1
 62
     0
 92
       -2
340
14
 93
        0
 40
0.045
309
GRIDFORMAT_END
 95
       32
302
GRIDFORMAT
  1
GRIDFORMAT_BEGIN
 90
        0
 91
        1
 62
     0
 92
       -2
340
14
 93
        0
 40
0.045
309
GRIDFORMAT_END
309
TABLEFORMAT_END
  1
CELLSTYLE_BEGIN
 90
        2
 91
        1
300
_HEADER
309
CELLSTYLE_END
300
CELLSTYLE
  1
TABLEFORMAT_BEGIN
 90
        5
170
     1
 91
        0
 92
        0
 62
   257
 93
        1
300
CONTENTFORMAT
  1
CONTENTFORMAT_BEGIN
 90
        0
 91
        0
 92
        4
 93
        0
300

 40
0.0
140
1.0
 94
        2
 62
     0
340
11
144
0.18
309
CONTENTFORMAT_END
171
     1
301
MARGIN
  1
CELLMARGIN_BEGIN
 40
0.06
 40
0.06
 40
0.06
 40
0.06
 40
0.06
 40
0.06
309
CELLMARGIN_END
 94
        6
 95
        1
302
GRIDFORMAT
  1
GRIDFORMAT_BEGIN
 90
        0
 91
        1
 62
     0
 92
       -2
340
14
 93
        0
 40
0.045
309
GRIDFORMAT_END
 95
        2
302
GRIDFORMAT
  1
GRIDFORMAT_BEGIN
 90
        0
 91
        1
 62
     0
 92
       -2
340
14
 93
        0
 40
0.045
309
GRIDFORMAT_END
 95
        4
302
GRIDFORMAT
  1
GRIDFORMAT_BEGIN
 90
        0
 91
        1
 62
     0
 92
       -2
340
14
 93
        0
 40
0.045
309
GRIDFORMAT_END
 95
        8
302
GRIDFORMAT
  1
GRIDFORMAT_BEGIN
 90
        0
 91
        1
 62
     0
 92
       -2
340
14
 93
        0
 40
0.045
309
GRIDFORMAT_END
 95
       16
302
GRIDFORMAT
  1
GRIDFORMAT_BEGIN
 90
        0
 91
        1
 62
     0
 92
       -2
340
14
 93
        0
 40
0.045
309
GRIDFORMAT_END
 95
       32
302
GRIDFORMAT
  1
GRIDFORMAT_BEGIN
 90
        0
 91
        1
 62
     0
 92
       -2
340
14
 93
        0
 40
0.045
309
GRIDFORMAT_END
309
TABLEFORMAT_END
  1
CELLSTYLE_BEGIN
 90
        3
 91
        2
300
_DATA
309
CELLSTYLE_END
  0
XRECORD
  5
358
102
{ACAD_REACTORS
330
357
102
}
330
357
100
AcDbXrecord
280
     1
102
ACAD_ROUNDTRIP_PRE2007_TABLESTYLE
 90
        4
 91
        0
  1

 92
        4
 93
        0
  2

 94
        4
 95
        0
  3

  0
XRECORD
  5
32A
102
{ACAD_REACTORS
330
329
102
}
330
329
100
AcDbXrecord
280
     1
102
RTVSPropertyOp0
 70
     1
102
RTVSPropertyOp1
 70
     1
102
RTVSPropertyOp2
 70
     1
102
RTVSPropertyOp3
 70
     1
102
RTVSPropertyOp4
 70
     1
102
RTVSPropertyOp5
 70
     1
102
RTVSPropertyOp6
 70
     1
102
RTVSPropertyOp7
 70
     1
102
RTVSPropertyOp8
 70
     1
102
RTVSPropertyOp9
 70
     1
102
RTVSPropertyOp10
 70
     1
102
RTVSPropertyOp11
 70
     1
102
RTVSPropertyOp12
 70
     1
102
RTVSPropertyOp13
 70
     1
102
RTVSPropertyOp14
 70
     1
102
RTVSPropertyOp15
 70
     1
102
RTVSPropertyOp16
 70
     1
102
RTVSPropertyOp17
 70
     1
102
RTVSPropertyOp18
 70
     1
102
RTVSPropertyOp19
 70
     1
102
RTVSPropertyOp20
 70
     1
102
RTVSPropertyOp21
 70
     1
102
RTVSPropertyOp22
 70
     1
102
RTVSPropertyOp23
 70
     1
102
RTVSPropertyOp24
 70
     1
102
RTVSPropertyOp25
 70
     1
102
RTVSPropertyOp26
 70
     1
102
RTVSPropertyOp27
 70
     1
102
RTVSPropertyOp28
 70
     1
102
RTVSPropertyOp29
 70
     1
102
RTVSPropertyOp30
 70
     1
102
RTVSPropertyOp31
 70
     1
102
RTVSPropertyOp32
 70
     1
102
RTVSPropertyOp33
 70
     1
102
RTVSPropertyOp34
 70
     1
102
RTVSPropertyOp35
 70
     1
102
RTVSPropertyOp36
 70
     1
102
RTVSPropertyOp37
 70
     1
102
RTVSPropertyOp38
 70
     1
102
RTVSPropertyOp39
 70
     1
102
RTVSPropertyOp40
 70
     1
102
RTVSPropertyOp41
 70
     1
102
RTVSPropertyOp42
 70
     1
102
RTVSPropertyOp43
 70
     1
102
RTVSPropertyOp44
 70
     1
102
RTVSPropertyOp45
 70
     1
102
RTVSPropertyOp46
 70
     1
102
RTVSPropertyOp47
 70
     1
102
RTVSPropertyOp48
 70
     1
102
RTVSPropertyOp49
 70
     1
102
RTVSPropertyOp50
 70
     1
102
RTVSPropertyOp51
 70
     0
102
RTVSPropertyOp52
 70
     0
102
RTVSPropertyOp53
 70
     1
102
RTVSPropertyOp54
 70
     1
102
RTVSPropertyOp55
 70
     1
102
RTVSPropertyOp56
 70
     1
102
RTVSPropertyOp57
 70
     1
102
RTVSPost2010Prop28
280
     1
102
RTVSPost2010PropOp28
 70
     1
102
RTVSPost2010Prop29
280
     1
102
RTVSPost2010PropOp29
 70
     1
102
RTVSPost2010Prop30
280
     0
102
RTVSPost2010PropOp30
 70
     1
102
RTVSPost2010Prop31
280
     0
102
RTVSPost2010PropOp31
 70
     1
102
RTVSPost2010Prop32
280
     0
102
RTVSPost2010PropOp32
 70
     1
102
RTVSPost2010Prop33
280
     0
102
RTVSPost2010PropOp33
 70
     1
102
RTVSPost2010Prop34
280
     0
102
RTVSPost2010PropOp34
 70
     1
102
RTVSPost2010Prop35
280
     0
102
RTVSPost2010PropOp35
 70
     1
102
RTVSPost2010Prop36
280
     0
102
RTVSPost2010PropOp36
 70
     1
102
RTVSPost2010Prop37
 90
       50
102
RTVSPost2010PropOp37
 70
     1
102
RTVSPost2010Prop38
140
0.0
102
RTVSPost2010PropOp38
 70
     1
102
RTVSPost2010Prop39
140
1.0
102
RTVSPost2010PropOp39
 70
     1
102
RTVSPost2010Prop40
 90
        0
102
RTVSPost2010PropOp40
 70
     1
102
RTVSPost2010Prop41ColorIndex
 90
       18
102
RTVSPost2010Prop41ColorRGB
 90
        0
102
RTVSPost2010PropOp41
 70
     1
102
RTVSPost2010Prop42
 90
       50
102
RTVSPost2010PropOp42
 70
     1
102
RTVSPost2010Prop43
 90
        3
102
RTVSPost2010PropOp43
 70
     1
102
RTVSPost2010Prop44ColorIndex
 90
        5
102
RTVSPost2010Prop44ColorRGB
 90
      255
102
RTVSPost2010PropOp44
 70
     1
102
RTVSPost2010Prop45
280
     0
102
RTVSPost2010PropOp45
 70
     1
102
RTVSPost2010Prop46
 90
       50
102
RTVSPost2010PropOp46
 70
     1
102
RTVSPost2010Prop47
 90
       50
102
RTVSPost2010PropOp47
 70
     1
102
RTVSPost2010Prop48
 90
       50
102
RTVSPost2010PropOp48
 70
     1
102
RTVSPost2010Prop49
280
     0
102
RTVSPost2010PropOp49
 70
     1
102
RTVSPost2010Prop50
 90
       50
102
RTVSPost2010PropOp50
 70
     1
102
RTVSPost2010Prop51ColorIndex
 90
      256
102
RTVSPost2010Prop51ColorRGB
 90
-16777216
102
RTVSPost2010PropOp51
 70
     0
102
RTVSPost2010Prop52
140
1.0
102
RTVSPost2010PropOp52
 70
     0
102
RTVSPost2010Prop53
 90
        2
102
RTVSPost2010PropOp53
 70
     1
102
RTVSPost2010Prop54
  1
strokes_ogs.tif
102
RTVSPost2010PropOp54
 70
     1
102
RTVSPost2010Prop55
280
     0
102
RTVSPost2010PropOp55
 70
     1
102
RTVSPost2010Prop56
140
1.0
102
RTVSPost2010PropOp56
 70
     1
102
RTVSPost2010Prop57
140
1.0
102
RTVSPost2010PropOp57
 70
     1
  0
XRECORD
  5
330
102
{ACAD_REACTORS
330
32F
102
}
330
32F
100
AcDbXrecord
280
     1
102
RTVSPropertyOp0
 70
     1
102
RTVSPropertyOp1
 70
     1
102
RTVSPropertyOp2
 70
     1
102
RTVSPropertyOp3
 70
     1
102
RTVSPropertyOp4
 70
     1
102
RTVSPropertyOp5
 70
     1
102
RTVSPropertyOp6
 70
     1
102
RTVSPropertyOp7
 70
     1
102
RTVSPropertyOp8
 70
     1
102
RTVSPropertyOp9
 70
     1
102
RTVSPropertyOp10
 70
     1
102
RTVSPropertyOp11
 70
     1
102
RTVSPropertyOp12
 70
     1
102
RTVSPropertyOp13
 70
     1
102
RTVSPropertyOp14
 70
     1
102
RTVSPropertyOp15
 70
     1
102
RTVSPropertyOp16
 70
     1
102
RTVSPropertyOp17
 70
     1
102
RTVSPropertyOp18
 70
     1
102
RTVSPropertyOp19
 70
     1
102
RTVSPropertyOp20
 70
     1
102
RTVSPropertyOp21
 70
     1
102
RTVSPropertyOp22
 70
     1
102
RTVSPropertyOp23
 70
     1
102
RTVSPropertyOp24
 70
     1
102
RTVSPropertyOp25
 70
     1
102
RTVSPropertyOp26
 70
     1
102
RTVSPropertyOp27
 70
     1
102
RTVSPropertyOp28
 70
     1
102
RTVSPropertyOp29
 70
     1
102
RTVSPropertyOp30
 70
     1
102
RTVSPropertyOp31
 70
     1
102
RTVSPropertyOp32
 70
     1
102
RTVSPropertyOp33
 70
     1
102
RTVSPropertyOp34
 70
     1
102
RTVSPropertyOp35
 70
     1
102
RTVSPropertyOp36
 70
     1
102
RTVSPropertyOp37
 70
     1
102
RTVSPropertyOp38
 70
     1
102
RTVSPropertyOp39
 70
     1
102
RTVSPropertyOp40
 70
     1
102
RTVSPropertyOp41
 70
     1
102
RTVSPropertyOp42
 70
     1
102
RTVSPropertyOp43
 70
     1
102
RTVSPropertyOp44
 70
     1
102
RTVSPropertyOp45
 70
     1
102
RTVSPropertyOp46
 70
     1
102
RTVSPropertyOp47
 70
     1
102
RTVSPropertyOp48
 70
     1
102
RTVSPropertyOp49
 70
     1
102
RTVSPropertyOp50
 70
     1
102
RTVSPropertyOp51
 70
     0
102
RTVSPropertyOp52
 70
     0
102
RTVSPropertyOp53
 70
     1
102
RTVSPropertyOp54
 70
     1
102
RTVSPropertyOp55
 70
     1
102
RTVSPropertyOp56
 70
     1
102
RTVSPropertyOp57
 70
     1
102
RTVSPost2010Prop28
280
     0
102
RTVSPost2010PropOp28
 70
     1
102
RTVSPost2010Prop29
280
     1
102
RTVSPost2010PropOp29
 70
     1
102
RTVSPost2010Prop30
280
     1
102
RTVSPost2010PropOp30
 70
     1
102
RTVSPost2010Prop31
280
     0
102
RTVSPost2010PropOp31
 70
     1
102
RTVSPost2010Prop32
280
     0
102
RTVSPost2010PropOp32
 70
     1
102
RTVSPost2010Prop33
280
     0
102
RTVSPost2010PropOp33
 70
     1
102
RTVSPost2010Prop34
280
     0
102
RTVSPost2010PropOp34
 70
     1
102
RTVSPost2010Prop35
280
     0
102
RTVSPost2010PropOp35
 70
     1
102
RTVSPost2010Prop36
280
     0
102
RTVSPost2010PropOp36
 70
     1
102
RTVSPost2010Prop37
 90
       50
102
RTVSPost2010PropOp37
 70
     1
102
RTVSPost2010Prop38
140
0.0
102
RTVSPost2010PropOp38
 70
     1
102
RTVSPost2010Prop39
140
1.0
102
RTVSPost2010PropOp39
 70
     1
102
RTVSPost2010Prop40
 90
        0
102
RTVSPost2010PropOp40
 70
     1
102
RTVSPost2010Prop41ColorIndex
 90
       18
102
RTVSPost2010Prop41ColorRGB
 90
        0
102
RTVSPost2010PropOp41
 70
     1
102
RTVSPost2010Prop42
 90
       50
102
RTVSPost2010PropOp42
 70
     1
102
RTVSPost2010Prop43
 90
        3
102
RTVSPost2010PropOp43
 70
     1
102
RTVSPost2010Prop44ColorIndex
 90
        5
102
RTVSPost2010Prop44ColorRGB
 90
      255
102
RTVSPost2010PropOp44
 70
     1
102
RTVSPost2010Prop45
280
     0
102
RTVSPost2010PropOp45
 70
     1
102
RTVSPost2010Prop46
 90
       50
102
RTVSPost2010PropOp46
 70
     1
102
RTVSPost2010Prop47
 90
       50
102
RTVSPost2010PropOp47
 70
     1
102
RTVSPost2010Prop48
 90
       50
102
RTVSPost2010PropOp48
 70
     1
102
RTVSPost2010Prop49
280
     0
102
RTVSPost2010PropOp49
 70
     1
102
RTVSPost2010Prop50
 90
       50
102
RTVSPost2010PropOp50
 70
     1
102
RTVSPost2010Prop51ColorIndex
 90
      256
102
RTVSPost2010Prop51ColorRGB
 90
-16777216
102
RTVSPost2010PropOp51
 70
     0
102
RTVSPost2010Prop52
140
1.0
102
RTVSPost2010PropOp52
 70
     0
102
RTVSPost2010Prop53
 90
        2
102
RTVSPost2010PropOp53
 70
     1
102
RTVSPost2010Prop54
  1
strokes_ogs.tif
102
RTVSPost2010PropOp54
 70
     1
102
RTVSPost2010Prop55
280
     0
102
RTVSPost2010PropOp55
 70
     1
102
RTVSPost2010Prop56
140
1.0
102
RTVSPost2010PropOp56
 70
     1
102
RTVSPost2010Prop57
140
1.0
102
RTVSPost2010PropOp57
 70
     1
  0
XRECORD
  5
338
102
{ACAD_REACTORS
330
337
102
}
330
337
100
AcDbXrecord
280
     1
102
RTVSPropertyOp0
 70
     1
102
RTVSPropertyOp1
 70
     1
102
RTVSPropertyOp2
 70
     1
102
RTVSPropertyOp3
 70
     1
102
RTVSPropertyOp4
 70
     1
102
RTVSPropertyOp5
 70
     1
102
RTVSPropertyOp6
 70
     1
102
RTVSPropertyOp7
 70
     1
102
RTVSPropertyOp8
 70
     1
102
RTVSPropertyOp9
 70
     1
102
RTVSPropertyOp10
 70
     1
102
RTVSPropertyOp11
 70
     1
102
RTVSPropertyOp12
 70
     1
102
RTVSPropertyOp13
 70
     1
102
RTVSPropertyOp14
 70
     1
102
RTVSPropertyOp15
 70
     1
102
RTVSPropertyOp16
 70
     1
102
RTVSPropertyOp17
 70
     1
102
RTVSPropertyOp18
 70
     1
102
RTVSPropertyOp19
 70
     1
102
RTVSPropertyOp20
 70
     1
102
RTVSPropertyOp21
 70
     1
102
RTVSPropertyOp22
 70
     1
102
RTVSPropertyOp23
 70
     1
102
RTVSPropertyOp24
 70
     1
102
RTVSPropertyOp25
 70
     1
102
RTVSPropertyOp26
 70
     1
102
RTVSPropertyOp27
 70
     1
102
RTVSPropertyOp28
 70
     1
102
RTVSPropertyOp29
 70
     1
102
RTVSPropertyOp30
 70
     1
102
RTVSPropertyOp31
 70
     1
102
RTVSPropertyOp32
 70
     1
102
RTVSPropertyOp33
 70
     1
102
RTVSPropertyOp34
 70
     1
102
RTVSPropertyOp35
 70
     1
102
RTVSPropertyOp36
 70
     1
102
RTVSPropertyOp37
 70
     1
102
RTVSPropertyOp38
 70
     1
102
RTVSPropertyOp39
 70
     1
102
RTVSPropertyOp40
 70
     1
102
RTVSPropertyOp41
 70
     1
102
RTVSPropertyOp42
 70
     1
102
RTVSPropertyOp43
 70
     1
102
RTVSPropertyOp44
 70
     1
102
RTVSPropertyOp45
 70
     1
102
RTVSPropertyOp46
 70
     1
102
RTVSPropertyOp47
 70
     1
102
RTVSPropertyOp48
 70
     1
102
RTVSPropertyOp49
 70
     1
102
RTVSPropertyOp50
 70
     1
102
RTVSPropertyOp51
 70
     0
102
RTVSPropertyOp52
 70
     0
102
RTVSPropertyOp53
 70
     1
102
RTVSPropertyOp54
 70
     1
102
RTVSPropertyOp55
 70
     1
102
RTVSPropertyOp56
 70
     1
102
RTVSPropertyOp57
 70
     1
102
RTVSPost2010Prop28
280
     0
102
RTVSPost2010PropOp28
 70
     1
102
RTVSPost2010Prop29
280
     1
102
RTVSPost2010PropOp29
 70
     1
102
RTVSPost2010Prop30
280
     1
102
RTVSPost2010PropOp30
 70
     1
102
RTVSPost2010Prop31
280
     0
102
RTVSPost2010PropOp31
 70
     1
102
RTVSPost2010Prop32
280
     0
102
RTVSPost2010PropOp32
 70
     1
102
RTVSPost2010Prop33
280
     0
102
RTVSPost2010PropOp33
 70
     1
102
RTVSPost2010Prop34
280
     0
102
RTVSPost2010PropOp34
 70
     1
102
RTVSPost2010Prop35
280
     0
102
RTVSPost2010PropOp35
 70
     1
102
RTVSPost2010Prop36
280
     0
102
RTVSPost2010PropOp36
 70
     1
102
RTVSPost2010Prop37
 90
       50
102
RTVSPost2010PropOp37
 70
     1
102
RTVSPost2010Prop38
140
0.0
102
RTVSPost2010PropOp38
 70
     1
102
RTVSPost2010Prop39
140
1.0
102
RTVSPost2010PropOp39
 70
     1
102
RTVSPost2010Prop40
 90
        0
102
RTVSPost2010PropOp40
 70
     1
102
RTVSPost2010Prop41ColorIndex
 90
       18
102
RTVSPost2010Prop41ColorRGB
 90
        0
102
RTVSPost2010PropOp41
 70
     1
102
RTVSPost2010Prop42
 90
       50
102
RTVSPost2010PropOp42
 70
     1
102
RTVSPost2010Prop43
 90
        3
102
RTVSPost2010PropOp43
 70
     1
102
RTVSPost2010Prop44ColorIndex
 90
        5
102
RTVSPost2010Prop44ColorRGB
 90
      255
102
RTVSPost2010PropOp44
 70
     1
102
RTVSPost2010Prop45
280
     0
102
RTVSPost2010PropOp45
 70
     1
102
RTVSPost2010Prop46
 90
       50
102
RTVSPost2010PropOp46
 70
     1
102
RTVSPost2010Prop47
 90
       50
102
RTVSPost2010PropOp47
 70
     1
102
RTVSPost2010Prop48
 90
       50
102
RTVSPost2010PropOp48
 70
     1
102
RTVSPost2010Prop49
280
     0
102
RTVSPost2010PropOp49
 70
     1
102
RTVSPost2010Prop50
 90
       50
102
RTVSPost2010PropOp50
 70
     1
102
RTVSPost2010Prop51ColorIndex
 90
      256
102
RTVSPost2010Prop51ColorRGB
 90
-16777216
102
RTVSPost2010PropOp51
 70
     0
102
RTVSPost2010Prop52
140
1.0
102
RTVSPost2010PropOp52
 70
     0
102
RTVSPost2010Prop53
 90
        2
102
RTVSPost2010PropOp53
 70
     1
102
RTVSPost2010Prop54
  1
strokes_ogs.tif
102
RTVSPost2010PropOp54
 70
     1
102
RTVSPost2010Prop55
280
     0
102
RTVSPost2010PropOp55
 70
     1
102
RTVSPost2010Prop56
140
1.0
102
RTVSPost2010PropOp56
 70
     1
102
RTVSPost2010Prop57
140
1.0
102
RTVSPost2010PropOp57
 70
     1
  0
XRECORD
  5
340
102
{ACAD_REACTORS
330
33F
102
}
330
33F
100
AcDbXrecord
280
     1
102
RTVSPropertyOp0
 70
     1
102
RTVSPropertyOp1
 70
     1
102
RTVSPropertyOp2
 70
     1
102
RTVSPropertyOp3
 70
     1
102
RTVSPropertyOp4
 70
     1
102
RTVSPropertyOp5
 70
     1
102
RTVSPropertyOp6
 70
     1
102
RTVSPropertyOp7
 70
     1
102
RTVSPropertyOp8
 70
     1
102
RTVSPropertyOp9
 70
     1
102
RTVSPropertyOp10
 70
     1
102
RTVSPropertyOp11
 70
     1
102
RTVSPropertyOp12
 70
     1
102
RTVSPropertyOp13
 70
     1
102
RTVSPropertyOp14
 70
     1
102
RTVSPropertyOp15
 70
     1
102
RTVSPropertyOp16
 70
     1
102
RTVSPropertyOp17
 70
     1
102
RTVSPropertyOp18
 70
     1
102
RTVSPropertyOp19
 70
     1
102
RTVSPropertyOp20
 70
     1
102
RTVSPropertyOp21
 70
     1
102
RTVSPropertyOp22
 70
     1
102
RTVSPropertyOp23
 70
     1
102
RTVSPropertyOp24
 70
     1
102
RTVSPropertyOp25
 70
     1
102
RTVSPropertyOp26
 70
     1
102
RTVSPropertyOp27
 70
     1
102
RTVSPropertyOp28
 70
     1
102
RTVSPropertyOp29
 70
     1
102
RTVSPropertyOp30
 70
     1
102
RTVSPropertyOp31
 70
     1
102
RTVSPropertyOp32
 70
     1
102
RTVSPropertyOp33
 70
     1
102
RTVSPropertyOp34
 70
     1
102
RTVSPropertyOp35
 70
     1
102
RTVSPropertyOp36
 70
     1
102
RTVSPropertyOp37
 70
     1
102
RTVSPropertyOp38
 70
     1
102
RTVSPropertyOp39
 70
     1
102
RTVSPropertyOp40
 70
     1
102
RTVSPropertyOp41
 70
     1
102
RTVSPropertyOp42
 70
     1
102
RTVSPropertyOp43
 70
     1
102
RTVSPropertyOp44
 70
     1
102
RTVSPropertyOp45
 70
     1
102
RTVSPropertyOp46
 70
     1
102
RTVSPropertyOp47
 70
     1
102
RTVSPropertyOp48
 70
     1
102
RTVSPropertyOp49
 70
     1
102
RTVSPropertyOp50
 70
     1
102
RTVSPropertyOp51
 70
     0
102
RTVSPropertyOp52
 70
     0
102
RTVSPropertyOp53
 70
     1
102
RTVSPropertyOp54
 70
     1
102
RTVSPropertyOp55
 70
     1
102
RTVSPropertyOp56
 70
     1
102
RTVSPropertyOp57
 70
     1
102
RTVSPost2010Prop28
280
     0
102
RTVSPost2010PropOp28
 70
     1
102
RTVSPost2010Prop29
280
     1
102
RTVSPost2010PropOp29
 70
     1
102
RTVSPost2010Prop30
280
     1
102
RTVSPost2010PropOp30
 70
     1
102
RTVSPost2010Prop31
280
     0
102
RTVSPost2010PropOp31
 70
     1
102
RTVSPost2010Prop32
280
     0
102
RTVSPost2010PropOp32
 70
     1
102
RTVSPost2010Prop33
280
     0
102
RTVSPost2010PropOp33
 70
     1
102
RTVSPost2010Prop34
280
     0
102
RTVSPost2010PropOp34
 70
     1
102
RTVSPost2010Prop35
280
     0
102
RTVSPost2010PropOp35
 70
     1
102
RTVSPost2010Prop36
280
     0
102
RTVSPost2010PropOp36
 70
     1
102
RTVSPost2010Prop37
 90
       50
102
RTVSPost2010PropOp37
 70
     1
102
RTVSPost2010Prop38
140
0.0
102
RTVSPost2010PropOp38
 70
     1
102
RTVSPost2010Prop39
140
1.0
102
RTVSPost2010PropOp39
 70
     1
102
RTVSPost2010Prop40
 90
        0
102
RTVSPost2010PropOp40
 70
     1
102
RTVSPost2010Prop41ColorIndex
 90
       18
102
RTVSPost2010Prop41ColorRGB
 90
        0
102
RTVSPost2010PropOp41
 70
     1
102
RTVSPost2010Prop42
 90
       50
102
RTVSPost2010PropOp42
 70
     1
102
RTVSPost2010Prop43
 90
        3
102
RTVSPost2010PropOp43
 70
     1
102
RTVSPost2010Prop44ColorIndex
 90
        5
102
RTVSPost2010Prop44ColorRGB
 90
      255
102
RTVSPost2010PropOp44
 70
     1
102
RTVSPost2010Prop45
280
     0
102
RTVSPost2010PropOp45
 70
     1
102
RTVSPost2010Prop46
 90
       50
102
RTVSPost2010PropOp46
 70
     1
102
RTVSPost2010Prop47
 90
       50
102
RTVSPost2010PropOp47
 70
     1
102
RTVSPost2010Prop48
 90
       50
102
RTVSPost2010PropOp48
 70
     1
102
RTVSPost2010Prop49
280
     0
102
RTVSPost2010PropOp49
 70
     1
102
RTVSPost2010Prop50
 90
       50
102
RTVSPost2010PropOp50
 70
     1
102
RTVSPost2010Prop51ColorIndex
 90
      256
102
RTVSPost2010Prop51ColorRGB
 90
-16777216
102
RTVSPost2010PropOp51
 70
     0
102
RTVSPost2010Prop52
140
1.0
102
RTVSPost2010PropOp52
 70
     0
102
RTVSPost2010Prop53
 90
        2
102
RTVSPost2010PropOp53
 70
     1
102
RTVSPost2010Prop54
  1
strokes_ogs.tif
102
RTVSPost2010PropOp54
 70
     1
102
RTVSPost2010Prop55
280
     0
102
RTVSPost2010PropOp55
 70
     1
102
RTVSPost2010Prop56
140
1.0
102
RTVSPost2010PropOp56
 70
     1
102
RTVSPost2010Prop57
140
1.0
102
RTVSPost2010PropOp57
 70
     1
  0
XRECORD
  5
334
102
{ACAD_REACTORS
330
333
102
}
330
333
100
AcDbXrecord
280
     1
102
RTVSPropertyOp0
 70
     1
102
RTVSPropertyOp1
 70
     1
102
RTVSPropertyOp2
 70
     1
102
RTVSPropertyOp3
 70
     1
102
RTVSPropertyOp4
 70
     1
102
RTVSPropertyOp5
 70
     1
102
RTVSPropertyOp6
 70
     1
102
RTVSPropertyOp7
 70
     1
102
RTVSPropertyOp8
 70
     1
102
RTVSPropertyOp9
 70
     1
102
RTVSPropertyOp10
 70
     1
102
RTVSPropertyOp11
 70
     1
102
RTVSPropertyOp12
 70
     1
102
RTVSPropertyOp13
 70
     1
102
RTVSPropertyOp14
 70
     1
102
RTVSPropertyOp15
 70
     1
102
RTVSPropertyOp16
 70
     1
102
RTVSPropertyOp17
 70
     1
102
RTVSPropertyOp18
 70
     1
102
RTVSPropertyOp19
 70
     1
102
RTVSPropertyOp20
 70
     1
102
RTVSPropertyOp21
 70
     1
102
RTVSPropertyOp22
 70
     1
102
RTVSPropertyOp23
 70
     1
102
RTVSPropertyOp24
 70
     1
102
RTVSPropertyOp25
 70
     1
102
RTVSPropertyOp26
 70
     1
102
RTVSPropertyOp27
 70
     1
102
RTVSPropertyOp28
 70
     1
102
RTVSPropertyOp29
 70
     1
102
RTVSPropertyOp30
 70
     1
102
RTVSPropertyOp31
 70
     1
102
RTVSPropertyOp32
 70
     1
102
RTVSPropertyOp33
 70
     1
102
RTVSPropertyOp34
 70
     1
102
RTVSPropertyOp35
 70
     1
102
RTVSPropertyOp36
 70
     1
102
RTVSPropertyOp37
 70
     1
102
RTVSPropertyOp38
 70
     1
102
RTVSPropertyOp39
 70
     1
102
RTVSPropertyOp40
 70
     1
102
RTVSPropertyOp41
 70
     1
102
RTVSPropertyOp42
 70
     1
102
RTVSPropertyOp43
 70
     1
102
RTVSPropertyOp44
 70
     1
102
RTVSPropertyOp45
 70
     1
102
RTVSPropertyOp46
 70
     1
102
RTVSPropertyOp47
 70
     1
102
RTVSPropertyOp48
 70
     1
102
RTVSPropertyOp49
 70
     1
102
RTVSPropertyOp50
 70
     1
102
RTVSPropertyOp51
 70
     0
102
RTVSPropertyOp52
 70
     0
102
RTVSPropertyOp53
 70
     1
102
RTVSPropertyOp54
 70
     1
102
RTVSPropertyOp55
 70
     1
102
RTVSPropertyOp56
 70
     1
102
RTVSPropertyOp57
 70
     1
102
RTVSPost2010Prop28
280
     0
102
RTVSPost2010PropOp28
 70
     1
102
RTVSPost2010Prop29
280
     1
102
RTVSPost2010PropOp29
 70
     1
102
RTVSPost2010Prop30
280
     1
102
RTVSPost2010PropOp30
 70
     1
102
RTVSPost2010Prop31
280
     0
102
RTVSPost2010PropOp31
 70
     1
102
RTVSPost2010Prop32
280
     0
102
RTVSPost2010PropOp32
 70
     1
102
RTVSPost2010Prop33
280
     0
102
RTVSPost2010PropOp33
 70
     1
102
RTVSPost2010Prop34
280
     0
102
RTVSPost2010PropOp34
 70
     1
102
RTVSPost2010Prop35
280
     0
102
RTVSPost2010PropOp35
 70
     1
102
RTVSPost2010Prop36
280
     0
102
RTVSPost2010PropOp36
 70
     1
102
RTVSPost2010Prop37
 90
       50
102
RTVSPost2010PropOp37
 70
     1
102
RTVSPost2010Prop38
140
0.0
102
RTVSPost2010PropOp38
 70
     1
102
RTVSPost2010Prop39
140
1.0
102
RTVSPost2010PropOp39
 70
     1
102
RTVSPost2010Prop40
 90
        0
102
RTVSPost2010PropOp40
 70
     1
102
RTVSPost2010Prop41ColorIndex
 90
       18
102
RTVSPost2010Prop41ColorRGB
 90
        0
102
RTVSPost2010PropOp41
 70
     1
102
RTVSPost2010Prop42
 90
       50
102
RTVSPost2010PropOp42
 70
     1
102
RTVSPost2010Prop43
 90
        3
102
RTVSPost2010PropOp43
 70
     1
102
RTVSPost2010Prop44ColorIndex
 90
        5
102
RTVSPost2010Prop44ColorRGB
 90
      255
102
RTVSPost2010PropOp44
 70
     1
102
RTVSPost2010Prop45
280
     0
102
RTVSPost2010PropOp45
 70
     1
102
RTVSPost2010Prop46
 90
       50
102
RTVSPost2010PropOp46
 70
     1
102
RTVSPost2010Prop47
 90
       50
102
RTVSPost2010PropOp47
 70
     1
102
RTVSPost2010Prop48
 90
       50
102
RTVSPost2010PropOp48
 70
     1
102
RTVSPost2010Prop49
280
     0
102
RTVSPost2010PropOp49
 70
     1
102
RTVSPost2010Prop50
 90
       50
102
RTVSPost2010PropOp50
 70
     1
102
RTVSPost2010Prop51ColorIndex
 90
      256
102
RTVSPost2010Prop51ColorRGB
 90
-16777216
102
RTVSPost2010PropOp51
 70
     0
102
RTVSPost2010Prop52
140
1.0
102
RTVSPost2010PropOp52
 70
     0
102
RTVSPost2010Prop53
 90
        2
102
RTVSPost2010PropOp53
 70
     1
102
RTVSPost2010Prop54
  1
strokes_ogs.tif
102
RTVSPost2010PropOp54
 70
     1
102
RTVSPost2010Prop55
280
     0
102
RTVSPost2010PropOp55
 70
     1
102
RTVSPost2010Prop56
140
1.0
102
RTVSPost2010PropOp56
 70
     1
102
RTVSPost2010Prop57
140
1.0
102
RTVSPost2010PropOp57
 70
     1
  0
XRECORD
  5
336
102
{ACAD_REACTORS
330
335
102
}
330
335
100
AcDbXrecord
280
     1
102
RTVSPropertyOp0
 70
     1
102
RTVSPropertyOp1
 70
     1
102
RTVSPropertyOp2
 70
     1
102
RTVSPropertyOp3
 70
     1
102
RTVSPropertyOp4
 70
     1
102
RTVSPropertyOp5
 70
     1
102
RTVSPropertyOp6
 70
     1
102
RTVSPropertyOp7
 70
     1
102
RTVSPropertyOp8
 70
     1
102
RTVSPropertyOp9
 70
     1
102
RTVSPropertyOp10
 70
     1
102
RTVSPropertyOp11
 70
     1
102
RTVSPropertyOp12
 70
     1
102
RTVSPropertyOp13
 70
     1
102
RTVSPropertyOp14
 70
     1
102
RTVSPropertyOp15
 70
     1
102
RTVSPropertyOp16
 70
     1
102
RTVSPropertyOp17
 70
     1
102
RTVSPropertyOp18
 70
     1
102
RTVSPropertyOp19
 70
     1
102
RTVSPropertyOp20
 70
     1
102
RTVSPropertyOp21
 70
     1
102
RTVSPropertyOp22
 70
     1
102
RTVSPropertyOp23
 70
     1
102
RTVSPropertyOp24
 70
     1
102
RTVSPropertyOp25
 70
     1
102
RTVSPropertyOp26
 70
     1
102
RTVSPropertyOp27
 70
     1
102
RTVSPropertyOp28
 70
     1
102
RTVSPropertyOp29
 70
     1
102
RTVSPropertyOp30
 70
     1
102
RTVSPropertyOp31
 70
     1
102
RTVSPropertyOp32
 70
     1
102
RTVSPropertyOp33
 70
     1
102
RTVSPropertyOp34
 70
     1
102
RTVSPropertyOp35
 70
     1
102
RTVSPropertyOp36
 70
     1
102
RTVSPropertyOp37
 70
     1
102
RTVSPropertyOp38
 70
     1
102
RTVSPropertyOp39
 70
     1
102
RTVSPropertyOp40
 70
     1
102
RTVSPropertyOp41
 70
     1
102
RTVSPropertyOp42
 70
     1
102
RTVSPropertyOp43
 70
     1
102
RTVSPropertyOp44
 70
     1
102
RTVSPropertyOp45
 70
     1
102
RTVSPropertyOp46
 70
     1
102
RTVSPropertyOp47
 70
     1
102
RTVSPropertyOp48
 70
     1
102
RTVSPropertyOp49
 70
     1
102
RTVSPropertyOp50
 70
     1
102
RTVSPropertyOp51
 70
     0
102
RTVSPropertyOp52
 70
     0
102
RTVSPropertyOp53
 70
     1
102
RTVSPropertyOp54
 70
     1
102
RTVSPropertyOp55
 70
     1
102
RTVSPropertyOp56
 70
     1
102
RTVSPropertyOp57
 70
     1
102
RTVSPost2010Prop28
280
     0
102
RTVSPost2010PropOp28
 70
     1
102
RTVSPost2010Prop29
280
     1
102
RTVSPost2010PropOp29
 70
     1
102
RTVSPost2010Prop30
280
     1
102
RTVSPost2010PropOp30
 70
     1
102
RTVSPost2010Prop31
280
     0
102
RTVSPost2010PropOp31
 70
     1
102
RTVSPost2010Prop32
280
     0
102
RTVSPost2010PropOp32
 70
     1
102
RTVSPost2010Prop33
280
     0
102
RTVSPost2010PropOp33
 70
     1
102
RTVSPost2010Prop34
280
     0
102
RTVSPost2010PropOp34
 70
     1
102
RTVSPost2010Prop35
280
     0
102
RTVSPost2010PropOp35
 70
     1
102
RTVSPost2010Prop36
280
     0
102
RTVSPost2010PropOp36
 70
     1
102
RTVSPost2010Prop37
 90
       50
102
RTVSPost2010PropOp37
 70
     1
102
RTVSPost2010Prop38
140
0.0
102
RTVSPost2010PropOp38
 70
     1
102
RTVSPost2010Prop39
140
1.0
102
RTVSPost2010PropOp39
 70
     1
102
RTVSPost2010Prop40
 90
        0
102
RTVSPost2010PropOp40
 70
     1
102
RTVSPost2010Prop41ColorIndex
 90
       18
102
RTVSPost2010Prop41ColorRGB
 90
        0
102
RTVSPost2010PropOp41
 70
     1
102
RTVSPost2010Prop42
 90
       50
102
RTVSPost2010PropOp42
 70
     1
102
RTVSPost2010Prop43
 90
        3
102
RTVSPost2010PropOp43
 70
     1
102
RTVSPost2010Prop44ColorIndex
 90
        5
102
RTVSPost2010Prop44ColorRGB
 90
      255
102
RTVSPost2010PropOp44
 70
     1
102
RTVSPost2010Prop45
280
     0
102
RTVSPost2010PropOp45
 70
     1
102
RTVSPost2010Prop46
 90
       50
102
RTVSPost2010PropOp46
 70
     1
102
RTVSPost2010Prop47
 90
       50
102
RTVSPost2010PropOp47
 70
     1
102
RTVSPost2010Prop48
 90
       50
102
RTVSPost2010PropOp48
 70
     1
102
RTVSPost2010Prop49
280
     0
102
RTVSPost2010PropOp49
 70
     1
102
RTVSPost2010Prop50
 90
       50
102
RTVSPost2010PropOp50
 70
     1
102
RTVSPost2010Prop51ColorIndex
 90
      256
102
RTVSPost2010Prop51ColorRGB
 90
-16777216
102
RTVSPost2010PropOp51
 70
     0
102
RTVSPost2010Prop52
140
1.0
102
RTVSPost2010PropOp52
 70
     0
102
RTVSPost2010Prop53
 90
        2
102
RTVSPost2010PropOp53
 70
     1
102
RTVSPost2010Prop54
  1
strokes_ogs.tif
102
RTVSPost2010PropOp54
 70
     1
102
RTVSPost2010Prop55
280
     0
102
RTVSPost2010PropOp55
 70
     1
102
RTVSPost2010Prop56
140
1.0
102
RTVSPost2010PropOp56
 70
     1
102
RTVSPost2010Prop57
140
1.0
102
RTVSPost2010PropOp57
 70
     1
  0
XRECORD
  5
346
102
{ACAD_REACTORS
330
345
102
}
330
345
100
AcDbXrecord
280
     1
102
RTVSPropertyOp0
 70
     0
102
RTVSPropertyOp1
 70
     0
102
RTVSPropertyOp2
 70
     0
102
RTVSPropertyOp3
 70
     0
102
RTVSPropertyOp4
 70
     0
102
RTVSPropertyOp5
 70
     0
102
RTVSPropertyOp6
 70
     0
102
RTVSPropertyOp7
 70
     0
102
RTVSPropertyOp8
 70
     0
102
RTVSPropertyOp9
 70
     0
102
RTVSPropertyOp10
 70
     0
102
RTVSPropertyOp11
 70
     0
102
RTVSPropertyOp12
 70
     0
102
RTVSPropertyOp13
 70
     0
102
RTVSPropertyOp14
 70
     2
102
RTVSPropertyOp15
 70
     0
102
RTVSPropertyOp16
 70
     0
102
RTVSPropertyOp17
 70
     0
102
RTVSPropertyOp18
 70
     0
102
RTVSPropertyOp19
 70
     0
102
RTVSPropertyOp20
 70
     0
102
RTVSPropertyOp21
 70
     0
102
RTVSPropertyOp22
 70
     0
102
RTVSPropertyOp23
 70
     0
102
RTVSPropertyOp24
 70
     0
102
RTVSPropertyOp25
 70
     0
102
RTVSPropertyOp26
 70
     0
102
RTVSPropertyOp27
 70
     0
102
RTVSPropertyOp28
 70
     0
102
RTVSPropertyOp29
 70
     0
102
RTVSPropertyOp30
 70
     0
102
RTVSPropertyOp31
 70
     0
102
RTVSPropertyOp32
 70
     0
102
RTVSPropertyOp33
 70
     0
102
RTVSPropertyOp34
 70
     0
102
RTVSPropertyOp35
 70
     0
102
RTVSPropertyOp36
 70
     0
102
RTVSPropertyOp37
 70
     0
102
RTVSPropertyOp38
 70
     0
102
RTVSPropertyOp39
 70
     0
102
RTVSPropertyOp40
 70
     0
102
RTVSPropertyOp41
 70
     0
102
RTVSPropertyOp42
 70
     0
102
RTVSPropertyOp43
 70
     0
102
RTVSPropertyOp44
 70
     0
102
RTVSPropertyOp45
 70
     0
102
RTVSPropertyOp46
 70
     0
102
RTVSPropertyOp47
 70
     0
102
RTVSPropertyOp48
 70
     0
102
RTVSPropertyOp49
 70
     0
102
RTVSPropertyOp50
 70
     0
102
RTVSPropertyOp51
 70
     0
102
RTVSPropertyOp52
 70
     0
102
RTVSPropertyOp53
 70
     0
102
RTVSPropertyOp54
 70
     0
102
RTVSPropertyOp55
 70
     0
102
RTVSPropertyOp56
 70
     0
102
RTVSPropertyOp57
 70
     0
102
RTVSPost2010Prop28
280
     0
102
RTVSPost2010PropOp28
 70
     0
102
RTVSPost2010Prop29
280
     1
102
RTVSPost2010PropOp29
 70
     0
102
RTVSPost2010Prop30
280
     1
102
RTVSPost2010PropOp30
 70
     0
102
RTVSPost2010Prop31
280
     0
102
RTVSPost2010PropOp31
 70
     0
102
RTVSPost2010Prop32
280
     0
102
RTVSPost2010PropOp32
 70
     0
102
RTVSPost2010Prop33
280
     0
102
RTVSPost2010PropOp33
 70
     0
102
RTVSPost2010Prop34
280
     0
102
RTVSPost2010PropOp34
 70
     0
102
RTVSPost2010Prop35
280
     0
102
RTVSPost2010PropOp35
 70
     0
102
RTVSPost2010Prop36
280
     0
102
RTVSPost2010PropOp36
 70
     0
102
RTVSPost2010Prop37
 90
       50
102
RTVSPost2010PropOp37
 70
     0
102
RTVSPost2010Prop38
140
0.0
102
RTVSPost2010PropOp38
 70
     0
102
RTVSPost2010Prop39
140
1.0
102
RTVSPost2010PropOp39
 70
     0
102
RTVSPost2010Prop40
 90
        0
102
RTVSPost2010PropOp40
 70
     0
102
RTVSPost2010Prop41ColorIndex
 90
       18
102
RTVSPost2010Prop41ColorRGB
 90
        0
102
RTVSPost2010PropOp41
 70
     0
102
RTVSPost2010Prop42
 90
       50
102
RTVSPost2010PropOp42
 70
     0
102
RTVSPost2010Prop43
 90
        3
102
RTVSPost2010PropOp43
 70
     0
102
RTVSPost2010Prop44ColorIndex
 90
        5
102
RTVSPost2010Prop44ColorRGB
 90
      255
102
RTVSPost2010PropOp44
 70
     0
102
RTVSPost2010Prop45
280
     0
102
RTVSPost2010PropOp45
 70
     0
102
RTVSPost2010Prop46
 90
       50
102
RTVSPost2010PropOp46
 70
     0
102
RTVSPost2010Prop47
 90
       50
102
RTVSPost2010PropOp47
 70
     0
102
RTVSPost2010Prop48
 90
       50
102
RTVSPost2010PropOp48
 70
     0
102
RTVSPost2010Prop49
280
     0
102
RTVSPost2010PropOp49
 70
     0
102
RTVSPost2010Prop50
 90
       50
102
RTVSPost2010PropOp50
 70
     0
102
RTVSPost2010Prop51ColorIndex
 90
      256
102
RTVSPost2010Prop51ColorRGB
 90
-16777216
102
RTVSPost2010PropOp51
 70
     0
102
RTVSPost2010Prop52
140
1.0
102
RTVSPost2010PropOp52
 70
     0
102
RTVSPost2010Prop53
 90
        2
102
RTVSPost2010PropOp53
 70
     0
102
RTVSPost2010Prop54
  1
strokes_ogs.tif
102
RTVSPost2010PropOp54
 70
     0
102
RTVSPost2010Prop55
280
     0
102
RTVSPost2010PropOp55
 70
     0
102
RTVSPost2010Prop56
140
1.0
102
RTVSPost2010PropOp56
 70
     0
102
RTVSPost2010Prop57
140
1.0
102
RTVSPost2010PropOp57
 70
     0
  0
XRECORD
  5
33E
102
{ACAD_REACTORS
330
33D
102
}
330
33D
100
AcDbXrecord
280
     1
102
RTVSPropertyOp0
 70
     1
102
RTVSPropertyOp1
 70
     1
102
RTVSPropertyOp2
 70
     1
102
RTVSPropertyOp3
 70
     1
102
RTVSPropertyOp4
 70
     1
102
RTVSPropertyOp5
 70
     1
102
RTVSPropertyOp6
 70
     1
102
RTVSPropertyOp7
 70
     1
102
RTVSPropertyOp8
 70
     1
102
RTVSPropertyOp9
 70
     1
102
RTVSPropertyOp10
 70
     1
102
RTVSPropertyOp11
 70
     1
102
RTVSPropertyOp12
 70
     1
102
RTVSPropertyOp13
 70
     1
102
RTVSPropertyOp14
 70
     1
102
RTVSPropertyOp15
 70
     1
102
RTVSPropertyOp16
 70
     1
102
RTVSPropertyOp17
 70
     1
102
RTVSPropertyOp18
 70
     1
102
RTVSPropertyOp19
 70
     1
102
RTVSPropertyOp20
 70
     1
102
RTVSPropertyOp21
 70
     1
102
RTVSPropertyOp22
 70
     1
102
RTVSPropertyOp23
 70
     1
102
RTVSPropertyOp24
 70
     1
102
RTVSPropertyOp25
 70
     1
102
RTVSPropertyOp26
 70
     1
102
RTVSPropertyOp27
 70
     1
102
RTVSPropertyOp28
 70
     1
102
RTVSPropertyOp29
 70
     1
102
RTVSPropertyOp30
 70
     1
102
RTVSPropertyOp31
 70
     1
102
RTVSPropertyOp32
 70
     1
102
RTVSPropertyOp33
 70
     1
102
RTVSPropertyOp34
 70
     1
102
RTVSPropertyOp35
 70
     1
102
RTVSPropertyOp36
 70
     1
102
RTVSPropertyOp37
 70
     1
102
RTVSPropertyOp38
 70
     1
102
RTVSPropertyOp39
 70
     1
102
RTVSPropertyOp40
 70
     1
102
RTVSPropertyOp41
 70
     1
102
RTVSPropertyOp42
 70
     1
102
RTVSPropertyOp43
 70
     1
102
RTVSPropertyOp44
 70
     1
102
RTVSPropertyOp45
 70
     1
102
RTVSPropertyOp46
 70
     1
102
RTVSPropertyOp47
 70
     1
102
RTVSPropertyOp48
 70
     1
102
RTVSPropertyOp49
 70
     1
102
RTVSPropertyOp50
 70
     1
102
RTVSPropertyOp51
 70
     0
102
RTVSPropertyOp52
 70
     0
102
RTVSPropertyOp53
 70
     1
102
RTVSPropertyOp54
 70
     1
102
RTVSPropertyOp55
 70
     1
102
RTVSPropertyOp56
 70
     1
102
RTVSPropertyOp57
 70
     1
102
RTVSPost2010Prop28
280
     0
102
RTVSPost2010PropOp28
 70
     1
102
RTVSPost2010Prop29
280
     1
102
RTVSPost2010PropOp29
 70
     1
102
RTVSPost2010Prop30
280
     1
102
RTVSPost2010PropOp30
 70
     1
102
RTVSPost2010Prop31
280
     0
102
RTVSPost2010PropOp31
 70
     1
102
RTVSPost2010Prop32
280
     0
102
RTVSPost2010PropOp32
 70
     1
102
RTVSPost2010Prop33
280
     0
102
RTVSPost2010PropOp33
 70
     1
102
RTVSPost2010Prop34
280
     0
102
RTVSPost2010PropOp34
 70
     1
102
RTVSPost2010Prop35
280
     0
102
RTVSPost2010PropOp35
 70
     1
102
RTVSPost2010Prop36
280
     0
102
RTVSPost2010PropOp36
 70
     1
102
RTVSPost2010Prop37
 90
       50
102
RTVSPost2010PropOp37
 70
     1
102
RTVSPost2010Prop38
140
0.0
102
RTVSPost2010PropOp38
 70
     1
102
RTVSPost2010Prop39
140
1.0
102
RTVSPost2010PropOp39
 70
     1
102
RTVSPost2010Prop40
 90
        0
102
RTVSPost2010PropOp40
 70
     1
102
RTVSPost2010Prop41ColorIndex
 90
       18
102
RTVSPost2010Prop41ColorRGB
 90
        0
102
RTVSPost2010PropOp41
 70
     1
102
RTVSPost2010Prop42
 90
       50
102
RTVSPost2010PropOp42
 70
     1
102
RTVSPost2010Prop43
 90
        3
102
RTVSPost2010PropOp43
 70
     1
102
RTVSPost2010Prop44ColorIndex
 90
        5
102
RTVSPost2010Prop44ColorRGB
 90
      255
102
RTVSPost2010PropOp44
 70
     1
102
RTVSPost2010Prop45
280
     0
102
RTVSPost2010PropOp45
 70
     1
102
RTVSPost2010Prop46
 90
       50
102
RTVSPost2010PropOp46
 70
     1
102
RTVSPost2010Prop47
 90
       50
102
RTVSPost2010PropOp47
 70
     1
102
RTVSPost2010Prop48
 90
       50
102
RTVSPost2010PropOp48
 70
     1
102
RTVSPost2010Prop49
280
     0
102
RTVSPost2010PropOp49
 70
     1
102
RTVSPost2010Prop50
 90
       50
102
RTVSPost2010PropOp50
 70
     1
102
RTVSPost2010Prop51ColorIndex
 90
      256
102
RTVSPost2010Prop51ColorRGB
 90
-16777216
102
RTVSPost2010PropOp51
 70
     0
102
RTVSPost2010Prop52
140
1.0
102
RTVSPost2010PropOp52
 70
     0
102
RTVSPost2010Prop53
 90
        2
102
RTVSPost2010PropOp53
 70
     1
102
RTVSPost2010Prop54
  1
strokes_ogs.tif
102
RTVSPost2010PropOp54
 70
     1
102
RTVSPost2010Prop55
280
     0
102
RTVSPost2010PropOp55
 70
     1
102
RTVSPost2010Prop56
140
1.0
102
RTVSPost2010PropOp56
 70
     1
102
RTVSPost2010Prop57
140
1.0
102
RTVSPost2010PropOp57
 70
     1
  0
XRECORD
  5
322
102
{ACAD_REACTORS
330
321
102
}
330
321
100
AcDbXrecord
280
     1
102
RTVSPropertyOp0
 70
     1
102
RTVSPropertyOp1
 70
     1
102
RTVSPropertyOp2
 70
     1
102
RTVSPropertyOp3
 70
     1
102
RTVSPropertyOp4
 70
     1
102
RTVSPropertyOp5
 70
     1
102
RTVSPropertyOp6
 70
     1
102
RTVSPropertyOp7
 70
     1
102
RTVSPropertyOp8
 70
     1
102
RTVSPropertyOp9
 70
     1
102
RTVSPropertyOp10
 70
     1
102
RTVSPropertyOp11
 70
     1
102
RTVSPropertyOp12
 70
     1
102
RTVSPropertyOp13
 70
     1
102
RTVSPropertyOp14
 70
     1
102
RTVSPropertyOp15
 70
     1
102
RTVSPropertyOp16
 70
     1
102
RTVSPropertyOp17
 70
     1
102
RTVSPropertyOp18
 70
     1
102
RTVSPropertyOp19
 70
     1
102
RTVSPropertyOp20
 70
     1
102
RTVSPropertyOp21
 70
     1
102
RTVSPropertyOp22
 70
     1
102
RTVSPropertyOp23
 70
     1
102
RTVSPropertyOp24
 70
     1
102
RTVSPropertyOp25
 70
     1
102
RTVSPropertyOp26
 70
     1
102
RTVSPropertyOp27
 70
     1
102
RTVSPropertyOp28
 70
     1
102
RTVSPropertyOp29
 70
     1
102
RTVSPropertyOp30
 70
     1
102
RTVSPropertyOp31
 70
     1
102
RTVSPropertyOp32
 70
     1
102
RTVSPropertyOp33
 70
     1
102
RTVSPropertyOp34
 70
     1
102
RTVSPropertyOp35
 70
     1
102
RTVSPropertyOp36
 70
     1
102
RTVSPropertyOp37
 70
     1
102
RTVSPropertyOp38
 70
     1
102
RTVSPropertyOp39
 70
     1
102
RTVSPropertyOp40
 70
     1
102
RTVSPropertyOp41
 70
     1
102
RTVSPropertyOp42
 70
     1
102
RTVSPropertyOp43
 70
     1
102
RTVSPropertyOp44
 70
     1
102
RTVSPropertyOp45
 70
     1
102
RTVSPropertyOp46
 70
     1
102
RTVSPropertyOp47
 70
     1
102
RTVSPropertyOp48
 70
     1
102
RTVSPropertyOp49
 70
     1
102
RTVSPropertyOp50
 70
     1
102
RTVSPropertyOp51
 70
     0
102
RTVSPropertyOp52
 70
     0
102
RTVSPropertyOp53
 70
     1
102
RTVSPropertyOp54
 70
     1
102
RTVSPropertyOp55
 70
     1
102
RTVSPropertyOp56
 70
     1
102
RTVSPropertyOp57
 70
     1
102
RTVSPost2010Prop28
280
     0
102
RTVSPost2010PropOp28
 70
     1
102
RTVSPost2010Prop29
280
     1
102
RTVSPost2010PropOp29
 70
     1
102
RTVSPost2010Prop30
280
     1
102
RTVSPost2010PropOp30
 70
     1
102
RTVSPost2010Prop31
280
     0
102
RTVSPost2010PropOp31
 70
     1
102
RTVSPost2010Prop32
280
     0
102
RTVSPost2010PropOp32
 70
     1
102
RTVSPost2010Prop33
280
     0
102
RTVSPost2010PropOp33
 70
     1
102
RTVSPost2010Prop34
280
     0
102
RTVSPost2010PropOp34
 70
     1
102
RTVSPost2010Prop35
280
     0
102
RTVSPost2010PropOp35
 70
     1
102
RTVSPost2010Prop36
280
     0
102
RTVSPost2010PropOp36
 70
     1
102
RTVSPost2010Prop37
 90
       50
102
RTVSPost2010PropOp37
 70
     1
102
RTVSPost2010Prop38
140
0.0
102
RTVSPost2010PropOp38
 70
     1
102
RTVSPost2010Prop39
140
1.0
102
RTVSPost2010PropOp39
 70
     1
102
RTVSPost2010Prop40
 90
        0
102
RTVSPost2010PropOp40
 70
     1
102
RTVSPost2010Prop41ColorIndex
 90
       18
102
RTVSPost2010Prop41ColorRGB
 90
        0
102
RTVSPost2010PropOp41
 70
     1
102
RTVSPost2010Prop42
 90
       50
102
RTVSPost2010PropOp42
 70
     1
102
RTVSPost2010Prop43
 90
        3
102
RTVSPost2010PropOp43
 70
     1
102
RTVSPost2010Prop44ColorIndex
 90
        5
102
RTVSPost2010Prop44ColorRGB
 90
      255
102
RTVSPost2010PropOp44
 70
     1
102
RTVSPost2010Prop45
280
     0
102
RTVSPost2010PropOp45
 70
     1
102
RTVSPost2010Prop46
 90
       50
102
RTVSPost2010PropOp46
 70
     1
102
RTVSPost2010Prop47
 90
       50
102
RTVSPost2010PropOp47
 70
     1
102
RTVSPost2010Prop48
 90
       50
102
RTVSPost2010PropOp48
 70
     1
102
RTVSPost2010Prop49
280
     0
102
RTVSPost2010PropOp49
 70
     1
102
RTVSPost2010Prop50
 90
       50
102
RTVSPost2010PropOp50
 70
     1
102
RTVSPost2010Prop51ColorIndex
 90
      256
102
RTVSPost2010Prop51ColorRGB
 90
-16777216
102
RTVSPost2010PropOp51
 70
     0
102
RTVSPost2010Prop52
140
1.0
102
RTVSPost2010PropOp52
 70
     0
102
RTVSPost2010Prop53
 90
        2
102
RTVSPost2010PropOp53
 70
     1
102
RTVSPost2010Prop54
  1
strokes_ogs.tif
102
RTVSPost2010PropOp54
 70
     1
102
RTVSPost2010Prop55
280
     0
102
RTVSPost2010PropOp55
 70
     1
102
RTVSPost2010Prop56
140
1.0
102
RTVSPost2010PropOp56
 70
     1
102
RTVSPost2010Prop57
140
1.0
102
RTVSPost2010PropOp57
 70
     1
  0
XRECORD
  5
324
102
{ACAD_REACTORS
330
323
102
}
330
323
100
AcDbXrecord
280
     1
102
RTVSPropertyOp0
 70
     1
102
RTVSPropertyOp1
 70
     1
102
RTVSPropertyOp2
 70
     1
102
RTVSPropertyOp3
 70
     1
102
RTVSPropertyOp4
 70
     1
102
RTVSPropertyOp5
 70
     1
102
RTVSPropertyOp6
 70
     1
102
RTVSPropertyOp7
 70
     1
102
RTVSPropertyOp8
 70
     1
102
RTVSPropertyOp9
 70
     1
102
RTVSPropertyOp10
 70
     1
102
RTVSPropertyOp11
 70
     1
102
RTVSPropertyOp12
 70
     1
102
RTVSPropertyOp13
 70
     1
102
RTVSPropertyOp14
 70
     1
102
RTVSPropertyOp15
 70
     1
102
RTVSPropertyOp16
 70
     1
102
RTVSPropertyOp17
 70
     1
102
RTVSPropertyOp18
 70
     1
102
RTVSPropertyOp19
 70
     1
102
RTVSPropertyOp20
 70
     1
102
RTVSPropertyOp21
 70
     1
102
RTVSPropertyOp22
 70
     1
102
RTVSPropertyOp23
 70
     1
102
RTVSPropertyOp24
 70
     1
102
RTVSPropertyOp25
 70
     1
102
RTVSPropertyOp26
 70
     1
102
RTVSPropertyOp27
 70
     1
102
RTVSPropertyOp28
 70
     1
102
RTVSPropertyOp29
 70
     1
102
RTVSPropertyOp30
 70
     1
102
RTVSPropertyOp31
 70
     1
102
RTVSPropertyOp32
 70
     1
102
RTVSPropertyOp33
 70
     1
102
RTVSPropertyOp34
 70
     1
102
RTVSPropertyOp35
 70
     1
102
RTVSPropertyOp36
 70
     1
102
RTVSPropertyOp37
 70
     1
102
RTVSPropertyOp38
 70
     1
102
RTVSPropertyOp39
 70
     1
102
RTVSPropertyOp40
 70
     1
102
RTVSPropertyOp41
 70
     1
102
RTVSPropertyOp42
 70
     1
102
RTVSPropertyOp43
 70
     1
102
RTVSPropertyOp44
 70
     1
102
RTVSPropertyOp45
 70
     1
102
RTVSPropertyOp46
 70
     1
102
RTVSPropertyOp47
 70
     1
102
RTVSPropertyOp48
 70
     1
102
RTVSPropertyOp49
 70
     1
102
RTVSPropertyOp50
 70
     1
102
RTVSPropertyOp51
 70
     0
102
RTVSPropertyOp52
 70
     0
102
RTVSPropertyOp53
 70
     1
102
RTVSPropertyOp54
 70
     1
102
RTVSPropertyOp55
 70
     1
102
RTVSPropertyOp56
 70
     1
102
RTVSPropertyOp57
 70
     1
102
RTVSPost2010Prop28
280
     0
102
RTVSPost2010PropOp28
 70
     1
102
RTVSPost2010Prop29
280
     1
102
RTVSPost2010PropOp29
 70
     1
102
RTVSPost2010Prop30
280
     1
102
RTVSPost2010PropOp30
 70
     1
102
RTVSPost2010Prop31
280
     0
102
RTVSPost2010PropOp31
 70
     1
102
RTVSPost2010Prop32
280
     0
102
RTVSPost2010PropOp32
 70
     1
102
RTVSPost2010Prop33
280
     0
102
RTVSPost2010PropOp33
 70
     1
102
RTVSPost2010Prop34
280
     0
102
RTVSPost2010PropOp34
 70
     1
102
RTVSPost2010Prop35
280
     0
102
RTVSPost2010PropOp35
 70
     1
102
RTVSPost2010Prop36
280
     0
102
RTVSPost2010PropOp36
 70
     1
102
RTVSPost2010Prop37
 90
       50
102
RTVSPost2010PropOp37
 70
     1
102
RTVSPost2010Prop38
140
0.0
102
RTVSPost2010PropOp38
 70
     1
102
RTVSPost2010Prop39
140
1.0
102
RTVSPost2010PropOp39
 70
     1
102
RTVSPost2010Prop40
 90
        0
102
RTVSPost2010PropOp40
 70
     1
102
RTVSPost2010Prop41ColorIndex
 90
       18
102
RTVSPost2010Prop41ColorRGB
 90
        0
102
RTVSPost2010PropOp41
 70
     1
102
RTVSPost2010Prop42
 90
       50
102
RTVSPost2010PropOp42
 70
     1
102
RTVSPost2010Prop43
 90
        3
102
RTVSPost2010PropOp43
 70
     1
102
RTVSPost2010Prop44ColorIndex
 90
        5
102
RTVSPost2010Prop44ColorRGB
 90
      255
102
RTVSPost2010PropOp44
 70
     1
102
RTVSPost2010Prop45
280
     0
102
RTVSPost2010PropOp45
 70
     1
102
RTVSPost2010Prop46
 90
       50
102
RTVSPost2010PropOp46
 70
     1
102
RTVSPost2010Prop47
 90
       50
102
RTVSPost2010PropOp47
 70
     1
102
RTVSPost2010Prop48
 90
       50
102
RTVSPost2010PropOp48
 70
     1
102
RTVSPost2010Prop49
280
     0
102
RTVSPost2010PropOp49
 70
     1
102
RTVSPost2010Prop50
 90
       50
102
RTVSPost2010PropOp50
 70
     1
102
RTVSPost2010Prop51ColorIndex
 90
      256
102
RTVSPost2010Prop51ColorRGB
 90
-16777216
102
RTVSPost2010PropOp51
 70
     0
102
RTVSPost2010Prop52
140
1.0
102
RTVSPost2010PropOp52
 70
     0
102
RTVSPost2010Prop53
 90
        2
102
RTVSPost2010PropOp53
 70
     1
102
RTVSPost2010Prop54
  1
strokes_ogs.tif
102
RTVSPost2010PropOp54
 70
     1
102
RTVSPost2010Prop55
280
     0
102
RTVSPost2010PropOp55
 70
     1
102
RTVSPost2010Prop56
140
1.0
102
RTVSPost2010PropOp56
 70
     1
102
RTVSPost2010Prop57
140
1.0
102
RTVSPost2010PropOp57
 70
     1
  0
XRECORD
  5
326
102
{ACAD_REACTORS
330
325
102
}
330
325
100
AcDbXrecord
280
     1
102
RTVSPropertyOp0
 70
     1
102
RTVSPropertyOp1
 70
     1
102
RTVSPropertyOp2
 70
     1
102
RTVSPropertyOp3
 70
     1
102
RTVSPropertyOp4
 70
     1
102
RTVSPropertyOp5
 70
     1
102
RTVSPropertyOp6
 70
     1
102
RTVSPropertyOp7
 70
     1
102
RTVSPropertyOp8
 70
     1
102
RTVSPropertyOp9
 70
     1
102
RTVSPropertyOp10
 70
     1
102
RTVSPropertyOp11
 70
     1
102
RTVSPropertyOp12
 70
     1
102
RTVSPropertyOp13
 70
     1
102
RTVSPropertyOp14
 70
     1
102
RTVSPropertyOp15
 70
     1
102
RTVSPropertyOp16
 70
     1
102
RTVSPropertyOp17
 70
     1
102
RTVSPropertyOp18
 70
     1
102
RTVSPropertyOp19
 70
     1
102
RTVSPropertyOp20
 70
     1
102
RTVSPropertyOp21
 70
     1
102
RTVSPropertyOp22
 70
     1
102
RTVSPropertyOp23
 70
     1
102
RTVSPropertyOp24
 70
     1
102
RTVSPropertyOp25
 70
     1
102
RTVSPropertyOp26
 70
     1
102
RTVSPropertyOp27
 70
     1
102
RTVSPropertyOp28
 70
     1
102
RTVSPropertyOp29
 70
     1
102
RTVSPropertyOp30
 70
     1
102
RTVSPropertyOp31
 70
     1
102
RTVSPropertyOp32
 70
     1
102
RTVSPropertyOp33
 70
     1
102
RTVSPropertyOp34
 70
     1
102
RTVSPropertyOp35
 70
     1
102
RTVSPropertyOp36
 70
     1
102
RTVSPropertyOp37
 70
     1
102
RTVSPropertyOp38
 70
     1
102
RTVSPropertyOp39
 70
     1
102
RTVSPropertyOp40
 70
     1
102
RTVSPropertyOp41
 70
     1
102
RTVSPropertyOp42
 70
     1
102
RTVSPropertyOp43
 70
     1
102
RTVSPropertyOp44
 70
     1
102
RTVSPropertyOp45
 70
     1
102
RTVSPropertyOp46
 70
     1
102
RTVSPropertyOp47
 70
     1
102
RTVSPropertyOp48
 70
     1
102
RTVSPropertyOp49
 70
     1
102
RTVSPropertyOp50
 70
     1
102
RTVSPropertyOp51
 70
     0
102
RTVSPropertyOp52
 70
     0
102
RTVSPropertyOp53
 70
     1
102
RTVSPropertyOp54
 70
     1
102
RTVSPropertyOp55
 70
     1
102
RTVSPropertyOp56
 70
     1
102
RTVSPropertyOp57
 70
     1
102
RTVSPost2010Prop28
280
     0
102
RTVSPost2010PropOp28
 70
     1
102
RTVSPost2010Prop29
280
     1
102
RTVSPost2010PropOp29
 70
     1
102
RTVSPost2010Prop30
280
     1
102
RTVSPost2010PropOp30
 70
     1
102
RTVSPost2010Prop31
280
     0
102
RTVSPost2010PropOp31
 70
     1
102
RTVSPost2010Prop32
280
     0
102
RTVSPost2010PropOp32
 70
     1
102
RTVSPost2010Prop33
280
     0
102
RTVSPost2010PropOp33
 70
     1
102
RTVSPost2010Prop34
280
     0
102
RTVSPost2010PropOp34
 70
     1
102
RTVSPost2010Prop35
280
     0
102
RTVSPost2010PropOp35
 70
     1
102
RTVSPost2010Prop36
280
     0
102
RTVSPost2010PropOp36
 70
     1
102
RTVSPost2010Prop37
 90
       50
102
RTVSPost2010PropOp37
 70
     1
102
RTVSPost2010Prop38
140
0.0
102
RTVSPost2010PropOp38
 70
     1
102
RTVSPost2010Prop39
140
1.0
102
RTVSPost2010PropOp39
 70
     1
102
RTVSPost2010Prop40
 90
        0
102
RTVSPost2010PropOp40
 70
     1
102
RTVSPost2010Prop41ColorIndex
 90
       18
102
RTVSPost2010Prop41ColorRGB
 90
        0
102
RTVSPost2010PropOp41
 70
     1
102
RTVSPost2010Prop42
 90
       50
102
RTVSPost2010PropOp42
 70
     1
102
RTVSPost2010Prop43
 90
        3
102
RTVSPost2010PropOp43
 70
     1
102
RTVSPost2010Prop44ColorIndex
 90
        5
102
RTVSPost2010Prop44ColorRGB
 90
      255
102
RTVSPost2010PropOp44
 70
     1
102
RTVSPost2010Prop45
280
     0
102
RTVSPost2010PropOp45
 70
     1
102
RTVSPost2010Prop46
 90
       50
102
RTVSPost2010PropOp46
 70
     1
102
RTVSPost2010Prop47
 90
       50
102
RTVSPost2010PropOp47
 70
     1
102
RTVSPost2010Prop48
 90
       50
102
RTVSPost2010PropOp48
 70
     1
102
RTVSPost2010Prop49
280
     0
102
RTVSPost2010PropOp49
 70
     1
102
RTVSPost2010Prop50
 90
       50
102
RTVSPost2010PropOp50
 70
     1
102
RTVSPost2010Prop51ColorIndex
 90
      256
102
RTVSPost2010Prop51ColorRGB
 90
-16777216
102
RTVSPost2010PropOp51
 70
     0
102
RTVSPost2010Prop52
140
1.0
102
RTVSPost2010PropOp52
 70
     0
102
RTVSPost2010Prop53
 90
        2
102
RTVSPost2010PropOp53
 70
     1
102
RTVSPost2010Prop54
  1
strokes_ogs.tif
102
RTVSPost2010PropOp54
 70
     1
102
RTVSPost2010Prop55
280
     0
102
RTVSPost2010PropOp55
 70
     1
102
RTVSPost2010Prop56
140
1.0
102
RTVSPost2010PropOp56
 70
     1
102
RTVSPost2010Prop57
140
1.0
102
RTVSPost2010PropOp57
 70
     1
  0
XRECORD
  5
328
102
{ACAD_REACTORS
330
327
102
}
330
327
100
AcDbXrecord
280
     1
102
RTVSPropertyOp0
 70
     1
102
RTVSPropertyOp1
 70
     1
102
RTVSPropertyOp2
 70
     1
102
RTVSPropertyOp3
 70
     1
102
RTVSPropertyOp4
 70
     1
102
RTVSPropertyOp5
 70
     1
102
RTVSPropertyOp6
 70
     1
102
RTVSPropertyOp7
 70
     1
102
RTVSPropertyOp8
 70
     1
102
RTVSPropertyOp9
 70
     1
102
RTVSPropertyOp10
 70
     1
102
RTVSPropertyOp11
 70
     1
102
RTVSPropertyOp12
 70
     1
102
RTVSPropertyOp13
 70
     1
102
RTVSPropertyOp14
 70
     1
102
RTVSPropertyOp15
 70
     1
102
RTVSPropertyOp16
 70
     1
102
RTVSPropertyOp17
 70
     1
102
RTVSPropertyOp18
 70
     1
102
RTVSPropertyOp19
 70
     1
102
RTVSPropertyOp20
 70
     1
102
RTVSPropertyOp21
 70
     1
102
RTVSPropertyOp22
 70
     1
102
RTVSPropertyOp23
 70
     1
102
RTVSPropertyOp24
 70
     1
102
RTVSPropertyOp25
 70
     1
102
RTVSPropertyOp26
 70
     1
102
RTVSPropertyOp27
 70
     1
102
RTVSPropertyOp28
 70
     1
102
RTVSPropertyOp29
 70
     1
102
RTVSPropertyOp30
 70
     1
102
RTVSPropertyOp31
 70
     1
102
RTVSPropertyOp32
 70
     1
102
RTVSPropertyOp33
 70
     1
102
RTVSPropertyOp34
 70
     1
102
RTVSPropertyOp35
 70
     1
102
RTVSPropertyOp36
 70
     1
102
RTVSPropertyOp37
 70
     1
102
RTVSPropertyOp38
 70
     1
102
RTVSPropertyOp39
 70
     1
102
RTVSPropertyOp40
 70
     1
102
RTVSPropertyOp41
 70
     1
102
RTVSPropertyOp42
 70
     1
102
RTVSPropertyOp43
 70
     1
102
RTVSPropertyOp44
 70
     1
102
RTVSPropertyOp45
 70
     1
102
RTVSPropertyOp46
 70
     1
102
RTVSPropertyOp47
 70
     1
102
RTVSPropertyOp48
 70
     1
102
RTVSPropertyOp49
 70
     1
102
RTVSPropertyOp50
 70
     1
102
RTVSPropertyOp51
 70
     0
102
RTVSPropertyOp52
 70
     0
102
RTVSPropertyOp53
 70
     1
102
RTVSPropertyOp54
 70
     1
102
RTVSPropertyOp55
 70
     1
102
RTVSPropertyOp56
 70
     1
102
RTVSPropertyOp57
 70
     1
102
RTVSPost2010Prop28
280
     0
102
RTVSPost2010PropOp28
 70
     1
102
RTVSPost2010Prop29
280
     1
102
RTVSPost2010PropOp29
 70
     1
102
RTVSPost2010Prop30
280
     1
102
RTVSPost2010PropOp30
 70
     1
102
RTVSPost2010Prop31
280
     0
102
RTVSPost2010PropOp31
 70
     1
102
RTVSPost2010Prop32
280
     0
102
RTVSPost2010PropOp32
 70
     1
102
RTVSPost2010Prop33
280
     0
102
RTVSPost2010PropOp33
 70
     1
102
RTVSPost2010Prop34
280
     0
102
RTVSPost2010PropOp34
 70
     1
102
RTVSPost2010Prop35
280
     0
102
RTVSPost2010PropOp35
 70
     1
102
RTVSPost2010Prop36
280
     0
102
RTVSPost2010PropOp36
 70
     1
102
RTVSPost2010Prop37
 90
       50
102
RTVSPost2010PropOp37
 70
     1
102
RTVSPost2010Prop38
140
0.0
102
RTVSPost2010PropOp38
 70
     1
102
RTVSPost2010Prop39
140
1.0
102
RTVSPost2010PropOp39
 70
     1
102
RTVSPost2010Prop40
 90
        0
102
RTVSPost2010PropOp40
 70
     1
102
RTVSPost2010Prop41ColorIndex
 90
       18
102
RTVSPost2010Prop41ColorRGB
 90
        0
102
RTVSPost2010PropOp41
 70
     1
102
RTVSPost2010Prop42
 90
       50
102
RTVSPost2010PropOp42
 70
     1
102
RTVSPost2010Prop43
 90
        3
102
RTVSPost2010PropOp43
 70
     1
102
RTVSPost2010Prop44ColorIndex
 90
        5
102
RTVSPost2010Prop44ColorRGB
 90
      255
102
RTVSPost2010PropOp44
 70
     1
102
RTVSPost2010Prop45
280
     0
102
RTVSPost2010PropOp45
 70
     1
102
RTVSPost2010Prop46
 90
       50
102
RTVSPost2010PropOp46
 70
     1
102
RTVSPost2010Prop47
 90
       50
102
RTVSPost2010PropOp47
 70
     1
102
RTVSPost2010Prop48
 90
       50
102
RTVSPost2010PropOp48
 70
     1
102
RTVSPost2010Prop49
280
     0
102
RTVSPost2010PropOp49
 70
     1
102
RTVSPost2010Prop50
 90
       50
102
RTVSPost2010PropOp50
 70
     1
102
RTVSPost2010Prop51ColorIndex
 90
      256
102
RTVSPost2010Prop51ColorRGB
 90
-16777216
102
RTVSPost2010PropOp51
 70
     0
102
RTVSPost2010Prop52
140
1.0
102
RTVSPost2010PropOp52
 70
     0
102
RTVSPost2010Prop53
 90
        2
102
RTVSPost2010PropOp53
 70
     1
102
RTVSPost2010Prop54
  1
strokes_ogs.tif
102
RTVSPost2010PropOp54
 70
     1
102
RTVSPost2010Prop55
280
     0
102
RTVSPost2010PropOp55
 70
     1
102
RTVSPost2010Prop56
140
1.0
102
RTVSPost2010PropOp56
 70
     1
102
RTVSPost2010Prop57
140
1.0
102
RTVSPost2010PropOp57
 70
     1
  0
XRECORD
  5
32E
102
{ACAD_REACTORS
330
32D
102
}
330
32D
100
AcDbXrecord
280
     1
102
RTVSPropertyOp0
 70
     1
102
RTVSPropertyOp1
 70
     1
102
RTVSPropertyOp2
 70
     1
102
RTVSPropertyOp3
 70
     1
102
RTVSPropertyOp4
 70
     1
102
RTVSPropertyOp5
 70
     1
102
RTVSPropertyOp6
 70
     1
102
RTVSPropertyOp7
 70
     1
102
RTVSPropertyOp8
 70
     1
102
RTVSPropertyOp9
 70
     1
102
RTVSPropertyOp10
 70
     1
102
RTVSPropertyOp11
 70
     1
102
RTVSPropertyOp12
 70
     1
102
RTVSPropertyOp13
 70
     1
102
RTVSPropertyOp14
 70
     1
102
RTVSPropertyOp15
 70
     1
102
RTVSPropertyOp16
 70
     1
102
RTVSPropertyOp17
 70
     1
102
RTVSPropertyOp18
 70
     1
102
RTVSPropertyOp19
 70
     1
102
RTVSPropertyOp20
 70
     1
102
RTVSPropertyOp21
 70
     1
102
RTVSPropertyOp22
 70
     1
102
RTVSPropertyOp23
 70
     1
102
RTVSPropertyOp24
 70
     1
102
RTVSPropertyOp25
 70
     1
102
RTVSPropertyOp26
 70
     1
102
RTVSPropertyOp27
 70
     1
102
RTVSPropertyOp28
 70
     1
102
RTVSPropertyOp29
 70
     1
102
RTVSPropertyOp30
 70
     1
102
RTVSPropertyOp31
 70
     1
102
RTVSPropertyOp32
 70
     1
102
RTVSPropertyOp33
 70
     1
102
RTVSPropertyOp34
 70
     1
102
RTVSPropertyOp35
 70
     1
102
RTVSPropertyOp36
 70
     1
102
RTVSPropertyOp37
 70
     1
102
RTVSPropertyOp38
 70
     1
102
RTVSPropertyOp39
 70
     1
102
RTVSPropertyOp40
 70
     1
102
RTVSPropertyOp41
 70
     1
102
RTVSPropertyOp42
 70
     1
102
RTVSPropertyOp43
 70
     1
102
RTVSPropertyOp44
 70
     1
102
RTVSPropertyOp45
 70
     1
102
RTVSPropertyOp46
 70
     1
102
RTVSPropertyOp47
 70
     1
102
RTVSPropertyOp48
 70
     1
102
RTVSPropertyOp49
 70
     1
102
RTVSPropertyOp50
 70
     1
102
RTVSPropertyOp51
 70
     0
102
RTVSPropertyOp52
 70
     0
102
RTVSPropertyOp53
 70
     1
102
RTVSPropertyOp54
 70
     1
102
RTVSPropertyOp55
 70
     1
102
RTVSPropertyOp56
 70
     1
102
RTVSPropertyOp57
 70
     1
102
RTVSPost2010Prop28
280
     0
102
RTVSPost2010PropOp28
 70
     1
102
RTVSPost2010Prop29
280
     1
102
RTVSPost2010PropOp29
 70
     1
102
RTVSPost2010Prop30
280
     1
102
RTVSPost2010PropOp30
 70
     1
102
RTVSPost2010Prop31
280
     0
102
RTVSPost2010PropOp31
 70
     1
102
RTVSPost2010Prop32
280
     0
102
RTVSPost2010PropOp32
 70
     1
102
RTVSPost2010Prop33
280
     0
102
RTVSPost2010PropOp33
 70
     1
102
RTVSPost2010Prop34
280
     0
102
RTVSPost2010PropOp34
 70
     1
102
RTVSPost2010Prop35
280
     0
102
RTVSPost2010PropOp35
 70
     1
102
RTVSPost2010Prop36
280
     0
102
RTVSPost2010PropOp36
 70
     1
102
RTVSPost2010Prop37
 90
       50
102
RTVSPost2010PropOp37
 70
     1
102
RTVSPost2010Prop38
140
0.0
102
RTVSPost2010PropOp38
 70
     1
102
RTVSPost2010Prop39
140
1.0
102
RTVSPost2010PropOp39
 70
     1
102
RTVSPost2010Prop40
 90
        0
102
RTVSPost2010PropOp40
 70
     1
102
RTVSPost2010Prop41ColorIndex
 90
       18
102
RTVSPost2010Prop41ColorRGB
 90
        0
102
RTVSPost2010PropOp41
 70
     1
102
RTVSPost2010Prop42
 90
       50
102
RTVSPost2010PropOp42
 70
     1
102
RTVSPost2010Prop43
 90
        3
102
RTVSPost2010PropOp43
 70
     1
102
RTVSPost2010Prop44ColorIndex
 90
        5
102
RTVSPost2010Prop44ColorRGB
 90
      255
102
RTVSPost2010PropOp44
 70
     1
102
RTVSPost2010Prop45
280
     0
102
RTVSPost2010PropOp45
 70
     1
102
RTVSPost2010Prop46
 90
       50
102
RTVSPost2010PropOp46
 70
     1
102
RTVSPost2010Prop47
 90
       50
102
RTVSPost2010PropOp47
 70
     1
102
RTVSPost2010Prop48
 90
       50
102
RTVSPost2010PropOp48
 70
     1
102
RTVSPost2010Prop49
280
     0
102
RTVSPost2010PropOp49
 70
     1
102
RTVSPost2010Prop50
 90
       50
102
RTVSPost2010PropOp50
 70
     1
102
RTVSPost2010Prop51ColorIndex
 90
      256
102
RTVSPost2010Prop51ColorRGB
 90
-16777216
102
RTVSPost2010PropOp51
 70
     0
102
RTVSPost2010Prop52
140
1.0
102
RTVSPost2010PropOp52
 70
     0
102
RTVSPost2010Prop53
 90
        2
102
RTVSPost2010PropOp53
 70
     1
102
RTVSPost2010Prop54
  1
strokes_ogs.tif
102
RTVSPost2010PropOp54
 70
     1
102
RTVSPost2010Prop55
280
     0
102
RTVSPost2010PropOp55
 70
     1
102
RTVSPost2010Prop56
140
1.0
102
RTVSPost2010PropOp56
 70
     1
102
RTVSPost2010Prop57
140
1.0
102
RTVSPost2010PropOp57
 70
     1
  0
XRECORD
  5
342
102
{ACAD_REACTORS
330
341
102
}
330
341
100
AcDbXrecord
280
     1
102
RTVSPropertyOp0
 70
     0
102
RTVSPropertyOp1
 70
     0
102
RTVSPropertyOp2
 70
     0
102
RTVSPropertyOp3
 70
     0
102
RTVSPropertyOp4
 70
     0
102
RTVSPropertyOp5
 70
     0
102
RTVSPropertyOp6
 70
     0
102
RTVSPropertyOp7
 70
     0
102
RTVSPropertyOp8
 70
     0
102
RTVSPropertyOp9
 70
     0
102
RTVSPropertyOp10
 70
     0
102
RTVSPropertyOp11
 70
     0
102
RTVSPropertyOp12
 70
     0
102
RTVSPropertyOp13
 70
     0
102
RTVSPropertyOp14
 70
     2
102
RTVSPropertyOp15
 70
     0
102
RTVSPropertyOp16
 70
     0
102
RTVSPropertyOp17
 70
     0
102
RTVSPropertyOp18
 70
     0
102
RTVSPropertyOp19
 70
     0
102
RTVSPropertyOp20
 70
     0
102
RTVSPropertyOp21
 70
     0
102
RTVSPropertyOp22
 70
     0
102
RTVSPropertyOp23
 70
     0
102
RTVSPropertyOp24
 70
     0
102
RTVSPropertyOp25
 70
     0
102
RTVSPropertyOp26
 70
     0
102
RTVSPropertyOp27
 70
     0
102
RTVSPropertyOp28
 70
     0
102
RTVSPropertyOp29
 70
     0
102
RTVSPropertyOp30
 70
     0
102
RTVSPropertyOp31
 70
     0
102
RTVSPropertyOp32
 70
     0
102
RTVSPropertyOp33
 70
     0
102
RTVSPropertyOp34
 70
     0
102
RTVSPropertyOp35
 70
     0
102
RTVSPropertyOp36
 70
     0
102
RTVSPropertyOp37
 70
     0
102
RTVSPropertyOp38
 70
     0
102
RTVSPropertyOp39
 70
     0
102
RTVSPropertyOp40
 70
     0
102
RTVSPropertyOp41
 70
     0
102
RTVSPropertyOp42
 70
     0
102
RTVSPropertyOp43
 70
     0
102
RTVSPropertyOp44
 70
     0
102
RTVSPropertyOp45
 70
     0
102
RTVSPropertyOp46
 70
     0
102
RTVSPropertyOp47
 70
     0
102
RTVSPropertyOp48
 70
     0
102
RTVSPropertyOp49
 70
     0
102
RTVSPropertyOp50
 70
     0
102
RTVSPropertyOp51
 70
     0
102
RTVSPropertyOp52
 70
     0
102
RTVSPropertyOp53
 70
     0
102
RTVSPropertyOp54
 70
     0
102
RTVSPropertyOp55
 70
     0
102
RTVSPropertyOp56
 70
     0
102
RTVSPropertyOp57
 70
     0
102
RTVSPost2010Prop28
280
     0
102
RTVSPost2010PropOp28
 70
     0
102
RTVSPost2010Prop29
280
     1
102
RTVSPost2010PropOp29
 70
     0
102
RTVSPost2010Prop30
280
     1
102
RTVSPost2010PropOp30
 70
     0
102
RTVSPost2010Prop31
280
     0
102
RTVSPost2010PropOp31
 70
     0
102
RTVSPost2010Prop32
280
     0
102
RTVSPost2010PropOp32
 70
     0
102
RTVSPost2010Prop33
280
     0
102
RTVSPost2010PropOp33
 70
     0
102
RTVSPost2010Prop34
280
     0
102
RTVSPost2010PropOp34
 70
     0
102
RTVSPost2010Prop35
280
     0
102
RTVSPost2010PropOp35
 70
     0
102
RTVSPost2010Prop36
280
     0
102
RTVSPost2010PropOp36
 70
     0
102
RTVSPost2010Prop37
 90
       50
102
RTVSPost2010PropOp37
 70
     0
102
RTVSPost2010Prop38
140
0.0
102
RTVSPost2010PropOp38
 70
     0
102
RTVSPost2010Prop39
140
1.0
102
RTVSPost2010PropOp39
 70
     0
102
RTVSPost2010Prop40
 90
        0
102
RTVSPost2010PropOp40
 70
     0
102
RTVSPost2010Prop41ColorIndex
 90
       18
102
RTVSPost2010Prop41ColorRGB
 90
        0
102
RTVSPost2010PropOp41
 70
     0
102
RTVSPost2010Prop42
 90
       50
102
RTVSPost2010PropOp42
 70
     0
102
RTVSPost2010Prop43
 90
        3
102
RTVSPost2010PropOp43
 70
     0
102
RTVSPost2010Prop44ColorIndex
 90
        5
102
RTVSPost2010Prop44ColorRGB
 90
      255
102
RTVSPost2010PropOp44
 70
     0
102
RTVSPost2010Prop45
280
     0
102
RTVSPost2010PropOp45
 70
     0
102
RTVSPost2010Prop46
 90
       50
102
RTVSPost2010PropOp46
 70
     0
102
RTVSPost2010Prop47
 90
       50
102
RTVSPost2010PropOp47
 70
     0
102
RTVSPost2010Prop48
 90
       50
102
RTVSPost2010PropOp48
 70
     0
102
RTVSPost2010Prop49
280
     0
102
RTVSPost2010PropOp49
 70
     0
102
RTVSPost2010Prop50
 90
       50
102
RTVSPost2010PropOp50
 70
     0
102
RTVSPost2010Prop51ColorIndex
 90
      256
102
RTVSPost2010Prop51ColorRGB
 90
-16777216
102
RTVSPost2010PropOp51
 70
     0
102
RTVSPost2010Prop52
140
1.0
102
RTVSPost2010PropOp52
 70
     0
102
RTVSPost2010Prop53
 90
        2
102
RTVSPost2010PropOp53
 70
     0
102
RTVSPost2010Prop54
  1
strokes_ogs.tif
102
RTVSPost2010PropOp54
 70
     0
102
RTVSPost2010Prop55
280
     0
102
RTVSPost2010PropOp55
 70
     0
102
RTVSPost2010Prop56
140
1.0
102
RTVSPost2010PropOp56
 70
     0
102
RTVSPost2010Prop57
140
1.0
102
RTVSPost2010PropOp57
 70
     0
  0
XRECORD
  5
33C
102
{ACAD_REACTORS
330
33B
102
}
330
33B
100
AcDbXrecord
280
     1
102
RTVSPropertyOp0
 70
     1
102
RTVSPropertyOp1
 70
     1
102
RTVSPropertyOp2
 70
     1
102
RTVSPropertyOp3
 70
     1
102
RTVSPropertyOp4
 70
     1
102
RTVSPropertyOp5
 70
     1
102
RTVSPropertyOp6
 70
     1
102
RTVSPropertyOp7
 70
     1
102
RTVSPropertyOp8
 70
     1
102
RTVSPropertyOp9
 70
     1
102
RTVSPropertyOp10
 70
     1
102
RTVSPropertyOp11
 70
     1
102
RTVSPropertyOp12
 70
     1
102
RTVSPropertyOp13
 70
     1
102
RTVSPropertyOp14
 70
     1
102
RTVSPropertyOp15
 70
     1
102
RTVSPropertyOp16
 70
     1
102
RTVSPropertyOp17
 70
     1
102
RTVSPropertyOp18
 70
     1
102
RTVSPropertyOp19
 70
     1
102
RTVSPropertyOp20
 70
     1
102
RTVSPropertyOp21
 70
     1
102
RTVSPropertyOp22
 70
     1
102
RTVSPropertyOp23
 70
     1
102
RTVSPropertyOp24
 70
     1
102
RTVSPropertyOp25
 70
     1
102
RTVSPropertyOp26
 70
     1
102
RTVSPropertyOp27
 70
     1
102
RTVSPropertyOp28
 70
     1
102
RTVSPropertyOp29
 70
     1
102
RTVSPropertyOp30
 70
     1
102
RTVSPropertyOp31
 70
     1
102
RTVSPropertyOp32
 70
     1
102
RTVSPropertyOp33
 70
     1
102
RTVSPropertyOp34
 70
     1
102
RTVSPropertyOp35
 70
     1
102
RTVSPropertyOp36
 70
     1
102
RTVSPropertyOp37
 70
     1
102
RTVSPropertyOp38
 70
     1
102
RTVSPropertyOp39
 70
     1
102
RTVSPropertyOp40
 70
     1
102
RTVSPropertyOp41
 70
     1
102
RTVSPropertyOp42
 70
     1
102
RTVSPropertyOp43
 70
     1
102
RTVSPropertyOp44
 70
     1
102
RTVSPropertyOp45
 70
     1
102
RTVSPropertyOp46
 70
     1
102
RTVSPropertyOp47
 70
     1
102
RTVSPropertyOp48
 70
     1
102
RTVSPropertyOp49
 70
     1
102
RTVSPropertyOp50
 70
     1
102
RTVSPropertyOp51
 70
     0
102
RTVSPropertyOp52
 70
     0
102
RTVSPropertyOp53
 70
     1
102
RTVSPropertyOp54
 70
     1
102
RTVSPropertyOp55
 70
     1
102
RTVSPropertyOp56
 70
     1
102
RTVSPropertyOp57
 70
     1
102
RTVSPost2010Prop28
280
     0
102
RTVSPost2010PropOp28
 70
     1
102
RTVSPost2010Prop29
280
     1
102
RTVSPost2010PropOp29
 70
     1
102
RTVSPost2010Prop30
280
     1
102
RTVSPost2010PropOp30
 70
     1
102
RTVSPost2010Prop31
280
     0
102
RTVSPost2010PropOp31
 70
     1
102
RTVSPost2010Prop32
280
     0
102
RTVSPost2010PropOp32
 70
     1
102
RTVSPost2010Prop33
280
     0
102
RTVSPost2010PropOp33
 70
     1
102
RTVSPost2010Prop34
280
     0
102
RTVSPost2010PropOp34
 70
     1
102
RTVSPost2010Prop35
280
     0
102
RTVSPost2010PropOp35
 70
     1
102
RTVSPost2010Prop36
280
     0
102
RTVSPost2010PropOp36
 70
     1
102
RTVSPost2010Prop37
 90
       50
102
RTVSPost2010PropOp37
 70
     1
102
RTVSPost2010Prop38
140
0.0
102
RTVSPost2010PropOp38
 70
     1
102
RTVSPost2010Prop39
140
1.0
102
RTVSPost2010PropOp39
 70
     1
102
RTVSPost2010Prop40
 90
        0
102
RTVSPost2010PropOp40
 70
     1
102
RTVSPost2010Prop41ColorIndex
 90
       18
102
RTVSPost2010Prop41ColorRGB
 90
        0
102
RTVSPost2010PropOp41
 70
     1
102
RTVSPost2010Prop42
 90
       50
102
RTVSPost2010PropOp42
 70
     1
102
RTVSPost2010Prop43
 90
        3
102
RTVSPost2010PropOp43
 70
     1
102
RTVSPost2010Prop44ColorIndex
 90
        5
102
RTVSPost2010Prop44ColorRGB
 90
      255
102
RTVSPost2010PropOp44
 70
     1
102
RTVSPost2010Prop45
280
     0
102
RTVSPost2010PropOp45
 70
     1
102
RTVSPost2010Prop46
 90
       50
102
RTVSPost2010PropOp46
 70
     1
102
RTVSPost2010Prop47
 90
       50
102
RTVSPost2010PropOp47
 70
     1
102
RTVSPost2010Prop48
 90
       50
102
RTVSPost2010PropOp48
 70
     1
102
RTVSPost2010Prop49
280
     0
102
RTVSPost2010PropOp49
 70
     1
102
RTVSPost2010Prop50
 90
       50
102
RTVSPost2010PropOp50
 70
     1
102
RTVSPost2010Prop51ColorIndex
 90
      256
102
RTVSPost2010Prop51ColorRGB
 90
-16777216
102
RTVSPost2010PropOp51
 70
     0
102
RTVSPost2010Prop52
140
1.0
102
RTVSPost2010PropOp52
 70
     0
102
RTVSPost2010Prop53
 90
        2
102
RTVSPost2010PropOp53
 70
     1
102
RTVSPost2010Prop54
  1
strokes_ogs.tif
102
RTVSPost2010PropOp54
 70
     1
102
RTVSPost2010Prop55
280
     0
102
RTVSPost2010PropOp55
 70
     1
102
RTVSPost2010Prop56
140
1.0
102
RTVSPost2010PropOp56
 70
     1
102
RTVSPost2010Prop57
140
1.0
102
RTVSPost2010PropOp57
 70
     1
  0
XRECORD
  5
344
102
{ACAD_REACTORS
330
343
102
}
330
343
100
AcDbXrecord
280
     1
102
RTVSPropertyOp0
 70
     0
102
RTVSPropertyOp1
 70
     0
102
RTVSPropertyOp2
 70
     0
102
RTVSPropertyOp3
 70
     0
102
RTVSPropertyOp4
 70
     0
102
RTVSPropertyOp5
 70
     0
102
RTVSPropertyOp6
 70
     0
102
RTVSPropertyOp7
 70
     0
102
RTVSPropertyOp8
 70
     0
102
RTVSPropertyOp9
 70
     0
102
RTVSPropertyOp10
 70
     0
102
RTVSPropertyOp11
 70
     0
102
RTVSPropertyOp12
 70
     0
102
RTVSPropertyOp13
 70
     0
102
RTVSPropertyOp14
 70
     2
102
RTVSPropertyOp15
 70
     0
102
RTVSPropertyOp16
 70
     0
102
RTVSPropertyOp17
 70
     0
102
RTVSPropertyOp18
 70
     0
102
RTVSPropertyOp19
 70
     0
102
RTVSPropertyOp20
 70
     0
102
RTVSPropertyOp21
 70
     0
102
RTVSPropertyOp22
 70
     0
102
RTVSPropertyOp23
 70
     0
102
RTVSPropertyOp24
 70
     0
102
RTVSPropertyOp25
 70
     0
102
RTVSPropertyOp26
 70
     0
102
RTVSPropertyOp27
 70
     0
102
RTVSPropertyOp28
 70
     0
102
RTVSPropertyOp29
 70
     0
102
RTVSPropertyOp30
 70
     0
102
RTVSPropertyOp31
 70
     0
102
RTVSPropertyOp32
 70
     0
102
RTVSPropertyOp33
 70
     0
102
RTVSPropertyOp34
 70
     0
102
RTVSPropertyOp35
 70
     0
102
RTVSPropertyOp36
 70
     0
102
RTVSPropertyOp37
 70
     0
102
RTVSPropertyOp38
 70
     0
102
RTVSPropertyOp39
 70
     0
102
RTVSPropertyOp40
 70
     0
102
RTVSPropertyOp41
 70
     0
102
RTVSPropertyOp42
 70
     0
102
RTVSPropertyOp43
 70
     0
102
RTVSPropertyOp44
 70
     0
102
RTVSPropertyOp45
 70
     0
102
RTVSPropertyOp46
 70
     0
102
RTVSPropertyOp47
 70
     0
102
RTVSPropertyOp48
 70
     0
102
RTVSPropertyOp49
 70
     0
102
RTVSPropertyOp50
 70
     0
102
RTVSPropertyOp51
 70
     0
102
RTVSPropertyOp52
 70
     0
102
RTVSPropertyOp53
 70
     0
102
RTVSPropertyOp54
 70
     0
102
RTVSPropertyOp55
 70
     0
102
RTVSPropertyOp56
 70
     0
102
RTVSPropertyOp57
 70
     0
102
RTVSPost2010Prop28
280
     0
102
RTVSPost2010PropOp28
 70
     0
102
RTVSPost2010Prop29
280
     1
102
RTVSPost2010PropOp29
 70
     0
102
RTVSPost2010Prop30
280
     1
102
RTVSPost2010PropOp30
 70
     0
102
RTVSPost2010Prop31
280
     0
102
RTVSPost2010PropOp31
 70
     0
102
RTVSPost2010Prop32
280
     0
102
RTVSPost2010PropOp32
 70
     0
102
RTVSPost2010Prop33
280
     0
102
RTVSPost2010PropOp33
 70
     0
102
RTVSPost2010Prop34
280
     0
102
RTVSPost2010PropOp34
 70
     0
102
RTVSPost2010Prop35
280
     0
102
RTVSPost2010PropOp35
 70
     0
102
RTVSPost2010Prop36
280
     0
102
RTVSPost2010PropOp36
 70
     0
102
RTVSPost2010Prop37
 90
       50
102
RTVSPost2010PropOp37
 70
     0
102
RTVSPost2010Prop38
140
0.0
102
RTVSPost2010PropOp38
 70
     0
102
RTVSPost2010Prop39
140
1.0
102
RTVSPost2010PropOp39
 70
     0
102
RTVSPost2010Prop40
 90
        0
102
RTVSPost2010PropOp40
 70
     0
102
RTVSPost2010Prop41ColorIndex
 90
       18
102
RTVSPost2010Prop41ColorRGB
 90
        0
102
RTVSPost2010PropOp41
 70
     0
102
RTVSPost2010Prop42
 90
       50
102
RTVSPost2010PropOp42
 70
     0
102
RTVSPost2010Prop43
 90
        3
102
RTVSPost2010PropOp43
 70
     0
102
RTVSPost2010Prop44ColorIndex
 90
        5
102
RTVSPost2010Prop44ColorRGB
 90
      255
102
RTVSPost2010PropOp44
 70
     0
102
RTVSPost2010Prop45
280
     0
102
RTVSPost2010PropOp45
 70
     0
102
RTVSPost2010Prop46
 90
       50
102
RTVSPost2010PropOp46
 70
     0
102
RTVSPost2010Prop47
 90
       50
102
RTVSPost2010PropOp47
 70
     0
102
RTVSPost2010Prop48
 90
       50
102
RTVSPost2010PropOp48
 70
     0
102
RTVSPost2010Prop49
280
     0
102
RTVSPost2010PropOp49
 70
     0
102
RTVSPost2010Prop50
 90
       50
102
RTVSPost2010PropOp50
 70
     0
102
RTVSPost2010Prop51ColorIndex
 90
      256
102
RTVSPost2010Prop51ColorRGB
 90
-16777216
102
RTVSPost2010PropOp51
 70
     0
102
RTVSPost2010Prop52
140
1.0
102
RTVSPost2010PropOp52
 70
     0
102
RTVSPost2010Prop53
 90
        2
102
RTVSPost2010PropOp53
 70
     0
102
RTVSPost2010Prop54
  1
strokes_ogs.tif
102
RTVSPost2010PropOp54
 70
     0
102
RTVSPost2010Prop55
280
     0
102
RTVSPost2010PropOp55
 70
     0
102
RTVSPost2010Prop56
140
1.0
102
RTVSPost2010PropOp56
 70
     0
102
RTVSPost2010Prop57
140
1.0
102
RTVSPost2010PropOp57
 70
     0
  0
XRECORD
  5
332
102
{ACAD_REACTORS
330
331
102
}
330
331
100
AcDbXrecord
280
     1
102
RTVSPropertyOp0
 70
     1
102
RTVSPropertyOp1
 70
     1
102
RTVSPropertyOp2
 70
     1
102
RTVSPropertyOp3
 70
     1
102
RTVSPropertyOp4
 70
     1
102
RTVSPropertyOp5
 70
     1
102
RTVSPropertyOp6
 70
     1
102
RTVSPropertyOp7
 70
     1
102
RTVSPropertyOp8
 70
     1
102
RTVSPropertyOp9
 70
     1
102
RTVSPropertyOp10
 70
     1
102
RTVSPropertyOp11
 70
     1
102
RTVSPropertyOp12
 70
     1
102
RTVSPropertyOp13
 70
     1
102
RTVSPropertyOp14
 70
     1
102
RTVSPropertyOp15
 70
     1
102
RTVSPropertyOp16
 70
     1
102
RTVSPropertyOp17
 70
     1
102
RTVSPropertyOp18
 70
     1
102
RTVSPropertyOp19
 70
     1
102
RTVSPropertyOp20
 70
     1
102
RTVSPropertyOp21
 70
     1
102
RTVSPropertyOp22
 70
     1
102
RTVSPropertyOp23
 70
     1
102
RTVSPropertyOp24
 70
     1
102
RTVSPropertyOp25
 70
     1
102
RTVSPropertyOp26
 70
     1
102
RTVSPropertyOp27
 70
     1
102
RTVSPropertyOp28
 70
     1
102
RTVSPropertyOp29
 70
     1
102
RTVSPropertyOp30
 70
     1
102
RTVSPropertyOp31
 70
     1
102
RTVSPropertyOp32
 70
     1
102
RTVSPropertyOp33
 70
     1
102
RTVSPropertyOp34
 70
     1
102
RTVSPropertyOp35
 70
     1
102
RTVSPropertyOp36
 70
     1
102
RTVSPropertyOp37
 70
     1
102
RTVSPropertyOp38
 70
     1
102
RTVSPropertyOp39
 70
     1
102
RTVSPropertyOp40
 70
     1
102
RTVSPropertyOp41
 70
     1
102
RTVSPropertyOp42
 70
     1
102
RTVSPropertyOp43
 70
     1
102
RTVSPropertyOp44
 70
     1
102
RTVSPropertyOp45
 70
     1
102
RTVSPropertyOp46
 70
     1
102
RTVSPropertyOp47
 70
     1
102
RTVSPropertyOp48
 70
     1
102
RTVSPropertyOp49
 70
     1
102
RTVSPropertyOp50
 70
     1
102
RTVSPropertyOp51
 70
     0
102
RTVSPropertyOp52
 70
     0
102
RTVSPropertyOp53
 70
     1
102
RTVSPropertyOp54
 70
     1
102
RTVSPropertyOp55
 70
     1
102
RTVSPropertyOp56
 70
     1
102
RTVSPropertyOp57
 70
     1
102
RTVSPost2010Prop28
280
     0
102
RTVSPost2010PropOp28
 70
     1
102
RTVSPost2010Prop29
280
     1
102
RTVSPost2010PropOp29
 70
     1
102
RTVSPost2010Prop30
280
     1
102
RTVSPost2010PropOp30
 70
     1
102
RTVSPost2010Prop31
280
     0
102
RTVSPost2010PropOp31
 70
     1
102
RTVSPost2010Prop32
280
     0
102
RTVSPost2010PropOp32
 70
     1
102
RTVSPost2010Prop33
280
     0
102
RTVSPost2010PropOp33
 70
     1
102
RTVSPost2010Prop34
280
     0
102
RTVSPost2010PropOp34
 70
     1
102
RTVSPost2010Prop35
280
     0
102
RTVSPost2010PropOp35
 70
     1
102
RTVSPost2010Prop36
280
     0
102
RTVSPost2010PropOp36
 70
     1
102
RTVSPost2010Prop37
 90
       50
102
RTVSPost2010PropOp37
 70
     1
102
RTVSPost2010Prop38
140
0.0
102
RTVSPost2010PropOp38
 70
     1
102
RTVSPost2010Prop39
140
1.0
102
RTVSPost2010PropOp39
 70
     1
102
RTVSPost2010Prop40
 90
        0
102
RTVSPost2010PropOp40
 70
     1
102
RTVSPost2010Prop41ColorIndex
 90
       18
102
RTVSPost2010Prop41ColorRGB
 90
        0
102
RTVSPost2010PropOp41
 70
     1
102
RTVSPost2010Prop42
 90
       50
102
RTVSPost2010PropOp42
 70
     1
102
RTVSPost2010Prop43
 90
        3
102
RTVSPost2010PropOp43
 70
     1
102
RTVSPost2010Prop44ColorIndex
 90
        5
102
RTVSPost2010Prop44ColorRGB
 90
      255
102
RTVSPost2010PropOp44
 70
     1
102
RTVSPost2010Prop45
280
     0
102
RTVSPost2010PropOp45
 70
     1
102
RTVSPost2010Prop46
 90
       50
102
RTVSPost2010PropOp46
 70
     1
102
RTVSPost2010Prop47
 90
       50
102
RTVSPost2010PropOp47
 70
     1
102
RTVSPost2010Prop48
 90
       50
102
RTVSPost2010PropOp48
 70
     1
102
RTVSPost2010Prop49
280
     0
102
RTVSPost2010PropOp49
 70
     1
102
RTVSPost2010Prop50
 90
       50
102
RTVSPost2010PropOp50
 70
     1
102
RTVSPost2010Prop51ColorIndex
 90
      256
102
RTVSPost2010Prop51ColorRGB
 90
-16777216
102
RTVSPost2010PropOp51
 70
     0
102
RTVSPost2010Prop52
140
1.0
102
RTVSPost2010PropOp52
 70
     0
102
RTVSPost2010Prop53
 90
        2
102
RTVSPost2010PropOp53
 70
     1
102
RTVSPost2010Prop54
  1
strokes_ogs.tif
102
RTVSPost2010PropOp54
 70
     1
102
RTVSPost2010Prop55
280
     0
102
RTVSPost2010PropOp55
 70
     1
102
RTVSPost2010Prop56
140
1.0
102
RTVSPost2010PropOp56
 70
     1
102
RTVSPost2010Prop57
140
1.0
102
RTVSPost2010PropOp57
 70
     1
  0
XRECORD
  5
350
102
{ACAD_REACTORS
330
34F
102
}
330
34F
100
AcDbXrecord
280
     1
102
RTVSPropertyOp0
 70
     1
102
RTVSPropertyOp1
 70
     1
102
RTVSPropertyOp2
 70
     1
102
RTVSPropertyOp3
 70
     1
102
RTVSPropertyOp4
 70
     1
102
RTVSPropertyOp5
 70
     1
102
RTVSPropertyOp6
 70
     1
102
RTVSPropertyOp7
 70
     1
102
RTVSPropertyOp8
 70
     1
102
RTVSPropertyOp9
 70
     1
102
RTVSPropertyOp10
 70
     1
102
RTVSPropertyOp11
 70
     1
102
RTVSPropertyOp12
 70
     1
102
RTVSPropertyOp13
 70
     1
102
RTVSPropertyOp14
 70
     1
102
RTVSPropertyOp15
 70
     1
102
RTVSPropertyOp16
 70
     1
102
RTVSPropertyOp17
 70
     1
102
RTVSPropertyOp18
 70
     1
102
RTVSPropertyOp19
 70
     1
102
RTVSPropertyOp20
 70
     1
102
RTVSPropertyOp21
 70
     1
102
RTVSPropertyOp22
 70
     1
102
RTVSPropertyOp23
 70
     1
102
RTVSPropertyOp24
 70
     1
102
RTVSPropertyOp25
 70
     1
102
RTVSPropertyOp26
 70
     1
102
RTVSPropertyOp27
 70
     1
102
RTVSPropertyOp28
 70
     1
102
RTVSPropertyOp29
 70
     1
102
RTVSPropertyOp30
 70
     1
102
RTVSPropertyOp31
 70
     1
102
RTVSPropertyOp32
 70
     1
102
RTVSPropertyOp33
 70
     1
102
RTVSPropertyOp34
 70
     1
102
RTVSPropertyOp35
 70
     1
102
RTVSPropertyOp36
 70
     1
102
RTVSPropertyOp37
 70
     1
102
RTVSPropertyOp38
 70
     1
102
RTVSPropertyOp39
 70
     1
102
RTVSPropertyOp40
 70
     1
102
RTVSPropertyOp41
 70
     1
102
RTVSPropertyOp42
 70
     1
102
RTVSPropertyOp43
 70
     1
102
RTVSPropertyOp44
 70
     1
102
RTVSPropertyOp45
 70
     1
102
RTVSPropertyOp46
 70
     1
102
RTVSPropertyOp47
 70
     1
102
RTVSPropertyOp48
 70
     1
102
RTVSPropertyOp49
 70
     1
102
RTVSPropertyOp50
 70
     1
102
RTVSPropertyOp51
 70
     0
102
RTVSPropertyOp52
 70
     0
102
RTVSPropertyOp53
 70
     1
102
RTVSPropertyOp54
 70
     1
102
RTVSPropertyOp55
 70
     1
102
RTVSPropertyOp56
 70
     1
102
RTVSPropertyOp57
 70
     1
102
RTVSPost2010Prop28
280
     0
102
RTVSPost2010PropOp28
 70
     1
102
RTVSPost2010Prop29
280
     1
102
RTVSPost2010PropOp29
 70
     1
102
RTVSPost2010Prop30
280
     1
102
RTVSPost2010PropOp30
 70
     1
102
RTVSPost2010Prop31
280
     0
102
RTVSPost2010PropOp31
 70
     1
102
RTVSPost2010Prop32
280
     0
102
RTVSPost2010PropOp32
 70
     1
102
RTVSPost2010Prop33
280
     0
102
RTVSPost2010PropOp33
 70
     1
102
RTVSPost2010Prop34
280
     0
102
RTVSPost2010PropOp34
 70
     1
102
RTVSPost2010Prop35
280
     0
102
RTVSPost2010PropOp35
 70
     1
102
RTVSPost2010Prop36
280
     0
102
RTVSPost2010PropOp36
 70
     1
102
RTVSPost2010Prop37
 90
       50
102
RTVSPost2010PropOp37
 70
     1
102
RTVSPost2010Prop38
140
0.0
102
RTVSPost2010PropOp38
 70
     1
102
RTVSPost2010Prop39
140
1.0
102
RTVSPost2010PropOp39
 70
     1
102
RTVSPost2010Prop40
 90
        0
102
RTVSPost2010PropOp40
 70
     1
102
RTVSPost2010Prop41ColorIndex
 90
       18
102
RTVSPost2010Prop41ColorRGB
 90
        0
102
RTVSPost2010PropOp41
 70
     1
102
RTVSPost2010Prop42
 90
       50
102
RTVSPost2010PropOp42
 70
     1
102
RTVSPost2010Prop43
 90
        3
102
RTVSPost2010PropOp43
 70
     1
102
RTVSPost2010Prop44ColorIndex
 90
        5
102
RTVSPost2010Prop44ColorRGB
 90
      255
102
RTVSPost2010PropOp44
 70
     1
102
RTVSPost2010Prop45
280
     0
102
RTVSPost2010PropOp45
 70
     1
102
RTVSPost2010Prop46
 90
       50
102
RTVSPost2010PropOp46
 70
     1
102
RTVSPost2010Prop47
 90
       50
102
RTVSPost2010PropOp47
 70
     1
102
RTVSPost2010Prop48
 90
       50
102
RTVSPost2010PropOp48
 70
     1
102
RTVSPost2010Prop49
280
     0
102
RTVSPost2010PropOp49
 70
     1
102
RTVSPost2010Prop50
 90
       50
102
RTVSPost2010PropOp50
 70
     1
102
RTVSPost2010Prop51ColorIndex
 90
      256
102
RTVSPost2010Prop51ColorRGB
 90
-16777216
102
RTVSPost2010PropOp51
 70
     0
102
RTVSPost2010Prop52
140
1.0
102
RTVSPost2010PropOp52
 70
     0
102
RTVSPost2010Prop53
 90
        2
102
RTVSPost2010PropOp53
 70
     1
102
RTVSPost2010Prop54
  1
strokes_ogs.tif
102
RTVSPost2010PropOp54
 70
     1
102
RTVSPost2010Prop55
280
     0
102
RTVSPost2010PropOp55
 70
     1
102
RTVSPost2010Prop56
140
1.0
102
RTVSPost2010PropOp56
 70
     1
102
RTVSPost2010Prop57
140
1.0
102
RTVSPost2010PropOp57
 70
     1
  0
XRECORD
  5
34E
102
{ACAD_REACTORS
330
34D
102
}
330
34D
100
AcDbXrecord
280
     1
102
RTVSPropertyOp0
 70
     1
102
RTVSPropertyOp1
 70
     1
102
RTVSPropertyOp2
 70
     1
102
RTVSPropertyOp3
 70
     1
102
RTVSPropertyOp4
 70
     1
102
RTVSPropertyOp5
 70
     1
102
RTVSPropertyOp6
 70
     1
102
RTVSPropertyOp7
 70
     1
102
RTVSPropertyOp8
 70
     1
102
RTVSPropertyOp9
 70
     1
102
RTVSPropertyOp10
 70
     1
102
RTVSPropertyOp11
 70
     1
102
RTVSPropertyOp12
 70
     1
102
RTVSPropertyOp13
 70
     1
102
RTVSPropertyOp14
 70
     1
102
RTVSPropertyOp15
 70
     1
102
RTVSPropertyOp16
 70
     1
102
RTVSPropertyOp17
 70
     1
102
RTVSPropertyOp18
 70
     1
102
RTVSPropertyOp19
 70
     1
102
RTVSPropertyOp20
 70
     1
102
RTVSPropertyOp21
 70
     1
102
RTVSPropertyOp22
 70
     1
102
RTVSPropertyOp23
 70
     1
102
RTVSPropertyOp24
 70
     1
102
RTVSPropertyOp25
 70
     1
102
RTVSPropertyOp26
 70
     1
102
RTVSPropertyOp27
 70
     1
102
RTVSPropertyOp28
 70
     1
102
RTVSPropertyOp29
 70
     1
102
RTVSPropertyOp30
 70
     1
102
RTVSPropertyOp31
 70
     1
102
RTVSPropertyOp32
 70
     1
102
RTVSPropertyOp33
 70
     1
102
RTVSPropertyOp34
 70
     1
102
RTVSPropertyOp35
 70
     1
102
RTVSPropertyOp36
 70
     1
102
RTVSPropertyOp37
 70
     1
102
RTVSPropertyOp38
 70
     1
102
RTVSPropertyOp39
 70
     1
102
RTVSPropertyOp40
 70
     1
102
RTVSPropertyOp41
 70
     1
102
RTVSPropertyOp42
 70
     1
102
RTVSPropertyOp43
 70
     1
102
RTVSPropertyOp44
 70
     1
102
RTVSPropertyOp45
 70
     1
102
RTVSPropertyOp46
 70
     1
102
RTVSPropertyOp47
 70
     1
102
RTVSPropertyOp48
 70
     1
102
RTVSPropertyOp49
 70
     1
102
RTVSPropertyOp50
 70
     1
102
RTVSPropertyOp51
 70
     0
102
RTVSPropertyOp52
 70
     0
102
RTVSPropertyOp53
 70
     1
102
RTVSPropertyOp54
 70
     1
102
RTVSPropertyOp55
 70
     1
102
RTVSPropertyOp56
 70
     1
102
RTVSPropertyOp57
 70
     1
102
RTVSPost2010Prop28
280
     0
102
RTVSPost2010PropOp28
 70
     1
102
RTVSPost2010Prop29
280
     1
102
RTVSPost2010PropOp29
 70
     1
102
RTVSPost2010Prop30
280
     1
102
RTVSPost2010PropOp30
 70
     1
102
RTVSPost2010Prop31
280
     0
102
RTVSPost2010PropOp31
 70
     1
102
RTVSPost2010Prop32
280
     0
102
RTVSPost2010PropOp32
 70
     1
102
RTVSPost2010Prop33
280
     0
102
RTVSPost2010PropOp33
 70
     1
102
RTVSPost2010Prop34
280
     0
102
RTVSPost2010PropOp34
 70
     1
102
RTVSPost2010Prop35
280
     0
102
RTVSPost2010PropOp35
 70
     1
102
RTVSPost2010Prop36
280
     0
102
RTVSPost2010PropOp36
 70
     1
102
RTVSPost2010Prop37
 90
       50
102
RTVSPost2010PropOp37
 70
     1
102
RTVSPost2010Prop38
140
0.0
102
RTVSPost2010PropOp38
 70
     1
102
RTVSPost2010Prop39
140
1.0
102
RTVSPost2010PropOp39
 70
     1
102
RTVSPost2010Prop40
 90
        0
102
RTVSPost2010PropOp40
 70
     1
102
RTVSPost2010Prop41ColorIndex
 90
       18
102
RTVSPost2010Prop41ColorRGB
 90
        0
102
RTVSPost2010PropOp41
 70
     1
102
RTVSPost2010Prop42
 90
       50
102
RTVSPost2010PropOp42
 70
     1
102
RTVSPost2010Prop43
 90
        3
102
RTVSPost2010PropOp43
 70
     1
102
RTVSPost2010Prop44ColorIndex
 90
        5
102
RTVSPost2010Prop44ColorRGB
 90
      255
102
RTVSPost2010PropOp44
 70
     1
102
RTVSPost2010Prop45
280
     0
102
RTVSPost2010PropOp45
 70
     1
102
RTVSPost2010Prop46
 90
       50
102
RTVSPost2010PropOp46
 70
     1
102
RTVSPost2010Prop47
 90
       50
102
RTVSPost2010PropOp47
 70
     1
102
RTVSPost2010Prop48
 90
       50
102
RTVSPost2010PropOp48
 70
     1
102
RTVSPost2010Prop49
280
     0
102
RTVSPost2010PropOp49
 70
     1
102
RTVSPost2010Prop50
 90
       50
102
RTVSPost2010PropOp50
 70
     1
102
RTVSPost2010Prop51ColorIndex
 90
      256
102
RTVSPost2010Prop51ColorRGB
 90
-16777216
102
RTVSPost2010PropOp51
 70
     0
102
RTVSPost2010Prop52
140
1.0
102
RTVSPost2010PropOp52
 70
     0
102
RTVSPost2010Prop53
 90
        2
102
RTVSPost2010PropOp53
 70
     1
102
RTVSPost2010Prop54
  1
strokes_ogs.tif
102
RTVSPost2010PropOp54
 70
     1
102
RTVSPost2010Prop55
280
     0
102
RTVSPost2010PropOp55
 70
     1
102
RTVSPost2010Prop56
140
1.0
102
RTVSPost2010PropOp56
 70
     1
102
RTVSPost2010Prop57
140
1.0
102
RTVSPost2010PropOp57
 70
     1
  0
XRECORD
  5
348
102
{ACAD_REACTORS
330
347
102
}
330
347
100
AcDbXrecord
280
     1
102
RTVSPropertyOp0
 70
     1
102
RTVSPropertyOp1
 70
     1
102
RTVSPropertyOp2
 70
     1
102
RTVSPropertyOp3
 70
     1
102
RTVSPropertyOp4
 70
     1
102
RTVSPropertyOp5
 70
     1
102
RTVSPropertyOp6
 70
     1
102
RTVSPropertyOp7
 70
     1
102
RTVSPropertyOp8
 70
     1
102
RTVSPropertyOp9
 70
     1
102
RTVSPropertyOp10
 70
     1
102
RTVSPropertyOp11
 70
     1
102
RTVSPropertyOp12
 70
     1
102
RTVSPropertyOp13
 70
     1
102
RTVSPropertyOp14
 70
     1
102
RTVSPropertyOp15
 70
     1
102
RTVSPropertyOp16
 70
     1
102
RTVSPropertyOp17
 70
     1
102
RTVSPropertyOp18
 70
     1
102
RTVSPropertyOp19
 70
     1
102
RTVSPropertyOp20
 70
     1
102
RTVSPropertyOp21
 70
     1
102
RTVSPropertyOp22
 70
     1
102
RTVSPropertyOp23
 70
     1
102
RTVSPropertyOp24
 70
     1
102
RTVSPropertyOp25
 70
     1
102
RTVSPropertyOp26
 70
     1
102
RTVSPropertyOp27
 70
     1
102
RTVSPropertyOp28
 70
     1
102
RTVSPropertyOp29
 70
     1
102
RTVSPropertyOp30
 70
     1
102
RTVSPropertyOp31
 70
     1
102
RTVSPropertyOp32
 70
     1
102
RTVSPropertyOp33
 70
     1
102
RTVSPropertyOp34
 70
     1
102
RTVSPropertyOp35
 70
     1
102
RTVSPropertyOp36
 70
     1
102
RTVSPropertyOp37
 70
     1
102
RTVSPropertyOp38
 70
     1
102
RTVSPropertyOp39
 70
     1
102
RTVSPropertyOp40
 70
     1
102
RTVSPropertyOp41
 70
     1
102
RTVSPropertyOp42
 70
     1
102
RTVSPropertyOp43
 70
     1
102
RTVSPropertyOp44
 70
     1
102
RTVSPropertyOp45
 70
     1
102
RTVSPropertyOp46
 70
     1
102
RTVSPropertyOp47
 70
     1
102
RTVSPropertyOp48
 70
     1
102
RTVSPropertyOp49
 70
     1
102
RTVSPropertyOp50
 70
     1
102
RTVSPropertyOp51
 70
     0
102
RTVSPropertyOp52
 70
     0
102
RTVSPropertyOp53
 70
     1
102
RTVSPropertyOp54
 70
     1
102
RTVSPropertyOp55
 70
     1
102
RTVSPropertyOp56
 70
     1
102
RTVSPropertyOp57
 70
     1
102
RTVSPost2010Prop28
280
     0
102
RTVSPost2010PropOp28
 70
     1
102
RTVSPost2010Prop29
280
     1
102
RTVSPost2010PropOp29
 70
     1
102
RTVSPost2010Prop30
280
     1
102
RTVSPost2010PropOp30
 70
     1
102
RTVSPost2010Prop31
280
     0
102
RTVSPost2010PropOp31
 70
     1
102
RTVSPost2010Prop32
280
     0
102
RTVSPost2010PropOp32
 70
     1
102
RTVSPost2010Prop33
280
     0
102
RTVSPost2010PropOp33
 70
     1
102
RTVSPost2010Prop34
280
     0
102
RTVSPost2010PropOp34
 70
     1
102
RTVSPost2010Prop35
280
     0
102
RTVSPost2010PropOp35
 70
     1
102
RTVSPost2010Prop36
280
     0
102
RTVSPost2010PropOp36
 70
     1
102
RTVSPost2010Prop37
 90
       50
102
RTVSPost2010PropOp37
 70
     1
102
RTVSPost2010Prop38
140
0.0
102
RTVSPost2010PropOp38
 70
     1
102
RTVSPost2010Prop39
140
1.0
102
RTVSPost2010PropOp39
 70
     1
102
RTVSPost2010Prop40
 90
        0
102
RTVSPost2010PropOp40
 70
     1
102
RTVSPost2010Prop41ColorIndex
 90
       18
102
RTVSPost2010Prop41ColorRGB
 90
        0
102
RTVSPost2010PropOp41
 70
     1
102
RTVSPost2010Prop42
 90
       50
102
RTVSPost2010PropOp42
 70
     1
102
RTVSPost2010Prop43
 90
        3
102
RTVSPost2010PropOp43
 70
     1
102
RTVSPost2010Prop44ColorIndex
 90
        5
102
RTVSPost2010Prop44ColorRGB
 90
      255
102
RTVSPost2010PropOp44
 70
     1
102
RTVSPost2010Prop45
280
     0
102
RTVSPost2010PropOp45
 70
     1
102
RTVSPost2010Prop46
 90
       50
102
RTVSPost2010PropOp46
 70
     1
102
RTVSPost2010Prop47
 90
       50
102
RTVSPost2010PropOp47
 70
     1
102
RTVSPost2010Prop48
 90
       50
102
RTVSPost2010PropOp48
 70
     1
102
RTVSPost2010Prop49
280
     0
102
RTVSPost2010PropOp49
 70
     1
102
RTVSPost2010Prop50
 90
       50
102
RTVSPost2010PropOp50
 70
     1
102
RTVSPost2010Prop51ColorIndex
 90
      256
102
RTVSPost2010Prop51ColorRGB
 90
-16777216
102
RTVSPost2010PropOp51
 70
     0
102
RTVSPost2010Prop52
140
1.0
102
RTVSPost2010PropOp52
 70
     0
102
RTVSPost2010Prop53
 90
        2
102
RTVSPost2010PropOp53
 70
     1
102
RTVSPost2010Prop54
  1
strokes_ogs.tif
102
RTVSPost2010PropOp54
 70
     1
102
RTVSPost2010Prop55
280
     0
102
RTVSPost2010PropOp55
 70
     1
102
RTVSPost2010Prop56
140
1.0
102
RTVSPost2010PropOp56
 70
     1
102
RTVSPost2010Prop57
140
1.0
102
RTVSPost2010PropOp57
 70
     1
  0
XRECORD
  5
34A
102
{ACAD_REACTORS
330
349
102
}
330
349
100
AcDbXrecord
280
     1
102
RTVSPropertyOp0
 70
     1
102
RTVSPropertyOp1
 70
     1
102
RTVSPropertyOp2
 70
     1
102
RTVSPropertyOp3
 70
     1
102
RTVSPropertyOp4
 70
     1
102
RTVSPropertyOp5
 70
     1
102
RTVSPropertyOp6
 70
     1
102
RTVSPropertyOp7
 70
     1
102
RTVSPropertyOp8
 70
     1
102
RTVSPropertyOp9
 70
     1
102
RTVSPropertyOp10
 70
     1
102
RTVSPropertyOp11
 70
     1
102
RTVSPropertyOp12
 70
     1
102
RTVSPropertyOp13
 70
     1
102
RTVSPropertyOp14
 70
     1
102
RTVSPropertyOp15
 70
     1
102
RTVSPropertyOp16
 70
     1
102
RTVSPropertyOp17
 70
     1
102
RTVSPropertyOp18
 70
     1
102
RTVSPropertyOp19
 70
     1
102
RTVSPropertyOp20
 70
     1
102
RTVSPropertyOp21
 70
     1
102
RTVSPropertyOp22
 70
     1
102
RTVSPropertyOp23
 70
     1
102
RTVSPropertyOp24
 70
     1
102
RTVSPropertyOp25
 70
     1
102
RTVSPropertyOp26
 70
     1
102
RTVSPropertyOp27
 70
     1
102
RTVSPropertyOp28
 70
     1
102
RTVSPropertyOp29
 70
     1
102
RTVSPropertyOp30
 70
     1
102
RTVSPropertyOp31
 70
     1
102
RTVSPropertyOp32
 70
     1
102
RTVSPropertyOp33
 70
     1
102
RTVSPropertyOp34
 70
     1
102
RTVSPropertyOp35
 70
     1
102
RTVSPropertyOp36
 70
     1
102
RTVSPropertyOp37
 70
     1
102
RTVSPropertyOp38
 70
     1
102
RTVSPropertyOp39
 70
     1
102
RTVSPropertyOp40
 70
     1
102
RTVSPropertyOp41
 70
     1
102
RTVSPropertyOp42
 70
     1
102
RTVSPropertyOp43
 70
     1
102
RTVSPropertyOp44
 70
     1
102
RTVSPropertyOp45
 70
     1
102
RTVSPropertyOp46
 70
     1
102
RTVSPropertyOp47
 70
     1
102
RTVSPropertyOp48
 70
     1
102
RTVSPropertyOp49
 70
     1
102
RTVSPropertyOp50
 70
     1
102
RTVSPropertyOp51
 70
     0
102
RTVSPropertyOp52
 70
     0
102
RTVSPropertyOp53
 70
     1
102
RTVSPropertyOp54
 70
     1
102
RTVSPropertyOp55
 70
     1
102
RTVSPropertyOp56
 70
     1
102
RTVSPropertyOp57
 70
     1
102
RTVSPost2010Prop28
280
     0
102
RTVSPost2010PropOp28
 70
     1
102
RTVSPost2010Prop29
280
     1
102
RTVSPost2010PropOp29
 70
     1
102
RTVSPost2010Prop30
280
     1
102
RTVSPost2010PropOp30
 70
     1
102
RTVSPost2010Prop31
280
     0
102
RTVSPost2010PropOp31
 70
     1
102
RTVSPost2010Prop32
280
     0
102
RTVSPost2010PropOp32
 70
     1
102
RTVSPost2010Prop33
280
     0
102
RTVSPost2010PropOp33
 70
     1
102
RTVSPost2010Prop34
280
     0
102
RTVSPost2010PropOp34
 70
     1
102
RTVSPost2010Prop35
280
     0
102
RTVSPost2010PropOp35
 70
     1
102
RTVSPost2010Prop36
280
     0
102
RTVSPost2010PropOp36
 70
     1
102
RTVSPost2010Prop37
 90
       50
102
RTVSPost2010PropOp37
 70
     1
102
RTVSPost2010Prop38
140
0.0
102
RTVSPost2010PropOp38
 70
     1
102
RTVSPost2010Prop39
140
1.0
102
RTVSPost2010PropOp39
 70
     1
102
RTVSPost2010Prop40
 90
        0
102
RTVSPost2010PropOp40
 70
     1
102
RTVSPost2010Prop41ColorIndex
 90
       18
102
RTVSPost2010Prop41ColorRGB
 90
        0
102
RTVSPost2010PropOp41
 70
     1
102
RTVSPost2010Prop42
 90
       50
102
RTVSPost2010PropOp42
 70
     1
102
RTVSPost2010Prop43
 90
        3
102
RTVSPost2010PropOp43
 70
     1
102
RTVSPost2010Prop44ColorIndex
 90
        5
102
RTVSPost2010Prop44ColorRGB
 90
      255
102
RTVSPost2010PropOp44
 70
     1
102
RTVSPost2010Prop45
280
     0
102
RTVSPost2010PropOp45
 70
     1
102
RTVSPost2010Prop46
 90
       50
102
RTVSPost2010PropOp46
 70
     1
102
RTVSPost2010Prop47
 90
       50
102
RTVSPost2010PropOp47
 70
     1
102
RTVSPost2010Prop48
 90
       50
102
RTVSPost2010PropOp48
 70
     1
102
RTVSPost2010Prop49
280
     0
102
RTVSPost2010PropOp49
 70
     1
102
RTVSPost2010Prop50
 90
       50
102
RTVSPost2010PropOp50
 70
     1
102
RTVSPost2010Prop51ColorIndex
 90
      256
102
RTVSPost2010Prop51ColorRGB
 90
-16777216
102
RTVSPost2010PropOp51
 70
     0
102
RTVSPost2010Prop52
140
1.0
102
RTVSPost2010PropOp52
 70
     0
102
RTVSPost2010Prop53
 90
        2
102
RTVSPost2010PropOp53
 70
     1
102
RTVSPost2010Prop54
  1
strokes_ogs.tif
102
RTVSPost2010PropOp54
 70
     1
102
RTVSPost2010Prop55
280
     0
102
RTVSPost2010PropOp55
 70
     1
102
RTVSPost2010Prop56
140
1.0
102
RTVSPost2010PropOp56
 70
     1
102
RTVSPost2010Prop57
140
1.0
102
RTVSPost2010PropOp57
 70
     1
  0
XRECORD
  5
33A
102
{ACAD_REACTORS
330
339
102
}
330
339
100
AcDbXrecord
280
     1
102
RTVSPropertyOp0
 70
     1
102
RTVSPropertyOp1
 70
     1
102
RTVSPropertyOp2
 70
     1
102
RTVSPropertyOp3
 70
     1
102
RTVSPropertyOp4
 70
     1
102
RTVSPropertyOp5
 70
     1
102
RTVSPropertyOp6
 70
     1
102
RTVSPropertyOp7
 70
     1
102
RTVSPropertyOp8
 70
     1
102
RTVSPropertyOp9
 70
     1
102
RTVSPropertyOp10
 70
     1
102
RTVSPropertyOp11
 70
     1
102
RTVSPropertyOp12
 70
     1
102
RTVSPropertyOp13
 70
     1
102
RTVSPropertyOp14
 70
     1
102
RTVSPropertyOp15
 70
     1
102
RTVSPropertyOp16
 70
     1
102
RTVSPropertyOp17
 70
     1
102
RTVSPropertyOp18
 70
     1
102
RTVSPropertyOp19
 70
     1
102
RTVSPropertyOp20
 70
     1
102
RTVSPropertyOp21
 70
     1
102
RTVSPropertyOp22
 70
     1
102
RTVSPropertyOp23
 70
     1
102
RTVSPropertyOp24
 70
     1
102
RTVSPropertyOp25
 70
     1
102
RTVSPropertyOp26
 70
     1
102
RTVSPropertyOp27
 70
     1
102
RTVSPropertyOp28
 70
     1
102
RTVSPropertyOp29
 70
     1
102
RTVSPropertyOp30
 70
     1
102
RTVSPropertyOp31
 70
     1
102
RTVSPropertyOp32
 70
     1
102
RTVSPropertyOp33
 70
     1
102
RTVSPropertyOp34
 70
     1
102
RTVSPropertyOp35
 70
     1
102
RTVSPropertyOp36
 70
     1
102
RTVSPropertyOp37
 70
     1
102
RTVSPropertyOp38
 70
     1
102
RTVSPropertyOp39
 70
     1
102
RTVSPropertyOp40
 70
     1
102
RTVSPropertyOp41
 70
     1
102
RTVSPropertyOp42
 70
     1
102
RTVSPropertyOp43
 70
     1
102
RTVSPropertyOp44
 70
     1
102
RTVSPropertyOp45
 70
     1
102
RTVSPropertyOp46
 70
     1
102
RTVSPropertyOp47
 70
     1
102
RTVSPropertyOp48
 70
     1
102
RTVSPropertyOp49
 70
     1
102
RTVSPropertyOp50
 70
     1
102
RTVSPropertyOp51
 70
     0
102
RTVSPropertyOp52
 70
     0
102
RTVSPropertyOp53
 70
     1
102
RTVSPropertyOp54
 70
     1
102
RTVSPropertyOp55
 70
     1
102
RTVSPropertyOp56
 70
     1
102
RTVSPropertyOp57
 70
     1
102
RTVSPost2010Prop28
280
     0
102
RTVSPost2010PropOp28
 70
     1
102
RTVSPost2010Prop29
280
     1
102
RTVSPost2010PropOp29
 70
     1
102
RTVSPost2010Prop30
280
     1
102
RTVSPost2010PropOp30
 70
     1
102
RTVSPost2010Prop31
280
     0
102
RTVSPost2010PropOp31
 70
     1
102
RTVSPost2010Prop32
280
     0
102
RTVSPost2010PropOp32
 70
     1
102
RTVSPost2010Prop33
280
     0
102
RTVSPost2010PropOp33
 70
     1
102
RTVSPost2010Prop34
280
     0
102
RTVSPost2010PropOp34
 70
     1
102
RTVSPost2010Prop35
280
     0
102
RTVSPost2010PropOp35
 70
     1
102
RTVSPost2010Prop36
280
     0
102
RTVSPost2010PropOp36
 70
     1
102
RTVSPost2010Prop37
 90
       50
102
RTVSPost2010PropOp37
 70
     1
102
RTVSPost2010Prop38
140
0.0
102
RTVSPost2010PropOp38
 70
     1
102
RTVSPost2010Prop39
140
1.0
102
RTVSPost2010PropOp39
 70
     1
102
RTVSPost2010Prop40
 90
        0
102
RTVSPost2010PropOp40
 70
     1
102
RTVSPost2010Prop41ColorIndex
 90
       18
102
RTVSPost2010Prop41ColorRGB
 90
        0
102
RTVSPost2010PropOp41
 70
     1
102
RTVSPost2010Prop42
 90
       50
102
RTVSPost2010PropOp42
 70
     1
102
RTVSPost2010Prop43
 90
        3
102
RTVSPost2010PropOp43
 70
     1
102
RTVSPost2010Prop44ColorIndex
 90
        5
102
RTVSPost2010Prop44ColorRGB
 90
      255
102
RTVSPost2010PropOp44
 70
     1
102
RTVSPost2010Prop45
280
     0
102
RTVSPost2010PropOp45
 70
     1
102
RTVSPost2010Prop46
 90
       50
102
RTVSPost2010PropOp46
 70
     1
102
RTVSPost2010Prop47
 90
       50
102
RTVSPost2010PropOp47
 70
     1
102
RTVSPost2010Prop48
 90
       50
102
RTVSPost2010PropOp48
 70
     1
102
RTVSPost2010Prop49
280
     0
102
RTVSPost2010PropOp49
 70
     1
102
RTVSPost2010Prop50
 90
       50
102
RTVSPost2010PropOp50
 70
     1
102
RTVSPost2010Prop51ColorIndex
 90
      256
102
RTVSPost2010Prop51ColorRGB
 90
-16777216
102
RTVSPost2010PropOp51
 70
     0
102
RTVSPost2010Prop52
140
1.0
102
RTVSPost2010PropOp52
 70
     0
102
RTVSPost2010Prop53
 90
        2
102
RTVSPost2010PropOp53
 70
     1
102
RTVSPost2010Prop54
  1
strokes_ogs.tif
102
RTVSPost2010PropOp54
 70
     1
102
RTVSPost2010Prop55
280
     0
102
RTVSPost2010PropOp55
 70
     1
102
RTVSPost2010Prop56
140
1.0
102
RTVSPost2010PropOp56
 70
     1
102
RTVSPost2010Prop57
140
1.0
102
RTVSPost2010PropOp57
 70
     1
  0
XRECORD
  5
32C
102
{ACAD_REACTORS
330
32B
102
}
330
32B
100
AcDbXrecord
280
     1
102
RTVSPropertyOp0
 70
     1
102
RTVSPropertyOp1
 70
     1
102
RTVSPropertyOp2
 70
     1
102
RTVSPropertyOp3
 70
     1
102
RTVSPropertyOp4
 70
     1
102
RTVSPropertyOp5
 70
     1
102
RTVSPropertyOp6
 70
     1
102
RTVSPropertyOp7
 70
     1
102
RTVSPropertyOp8
 70
     1
102
RTVSPropertyOp9
 70
     1
102
RTVSPropertyOp10
 70
     1
102
RTVSPropertyOp11
 70
     1
102
RTVSPropertyOp12
 70
     1
102
RTVSPropertyOp13
 70
     1
102
RTVSPropertyOp14
 70
     1
102
RTVSPropertyOp15
 70
     1
102
RTVSPropertyOp16
 70
     1
102
RTVSPropertyOp17
 70
     1
102
RTVSPropertyOp18
 70
     1
102
RTVSPropertyOp19
 70
     1
102
RTVSPropertyOp20
 70
     1
102
RTVSPropertyOp21
 70
     1
102
RTVSPropertyOp22
 70
     1
102
RTVSPropertyOp23
 70
     1
102
RTVSPropertyOp24
 70
     1
102
RTVSPropertyOp25
 70
     1
102
RTVSPropertyOp26
 70
     1
102
RTVSPropertyOp27
 70
     1
102
RTVSPropertyOp28
 70
     1
102
RTVSPropertyOp29
 70
     1
102
RTVSPropertyOp30
 70
     1
102
RTVSPropertyOp31
 70
     1
102
RTVSPropertyOp32
 70
     1
102
RTVSPropertyOp33
 70
     1
102
RTVSPropertyOp34
 70
     1
102
RTVSPropertyOp35
 70
     1
102
RTVSPropertyOp36
 70
     1
102
RTVSPropertyOp37
 70
     1
102
RTVSPropertyOp38
 70
     1
102
RTVSPropertyOp39
 70
     1
102
RTVSPropertyOp40
 70
     1
102
RTVSPropertyOp41
 70
     1
102
RTVSPropertyOp42
 70
     1
102
RTVSPropertyOp43
 70
     1
102
RTVSPropertyOp44
 70
     1
102
RTVSPropertyOp45
 70
     1
102
RTVSPropertyOp46
 70
     1
102
RTVSPropertyOp47
 70
     1
102
RTVSPropertyOp48
 70
     1
102
RTVSPropertyOp49
 70
     1
102
RTVSPropertyOp50
 70
     1
102
RTVSPropertyOp51
 70
     0
102
RTVSPropertyOp52
 70
     0
102
RTVSPropertyOp53
 70
     1
102
RTVSPropertyOp54
 70
     1
102
RTVSPropertyOp55
 70
     1
102
RTVSPropertyOp56
 70
     1
102
RTVSPropertyOp57
 70
     1
102
RTVSPost2010Prop28
280
     0
102
RTVSPost2010PropOp28
 70
     1
102
RTVSPost2010Prop29
280
     1
102
RTVSPost2010PropOp29
 70
     1
102
RTVSPost2010Prop30
280
     1
102
RTVSPost2010PropOp30
 70
     1
102
RTVSPost2010Prop31
280
     0
102
RTVSPost2010PropOp31
 70
     1
102
RTVSPost2010Prop32
280
     0
102
RTVSPost2010PropOp32
 70
     1
102
RTVSPost2010Prop33
280
     0
102
RTVSPost2010PropOp33
 70
     1
102
RTVSPost2010Prop34
280
     0
102
RTVSPost2010PropOp34
 70
     1
102
RTVSPost2010Prop35
280
     0
102
RTVSPost2010PropOp35
 70
     1
102
RTVSPost2010Prop36
280
     0
102
RTVSPost2010PropOp36
 70
     1
102
RTVSPost2010Prop37
 90
       50
102
RTVSPost2010PropOp37
 70
     1
102
RTVSPost2010Prop38
140
0.0
102
RTVSPost2010PropOp38
 70
     1
102
RTVSPost2010Prop39
140
1.0
102
RTVSPost2010PropOp39
 70
     1
102
RTVSPost2010Prop40
 90
        0
102
RTVSPost2010PropOp40
 70
     1
102
RTVSPost2010Prop41ColorIndex
 90
       18
102
RTVSPost2010Prop41ColorRGB
 90
        0
102
RTVSPost2010PropOp41
 70
     1
102
RTVSPost2010Prop42
 90
       50
102
RTVSPost2010PropOp42
 70
     1
102
RTVSPost2010Prop43
 90
        3
102
RTVSPost2010PropOp43
 70
     1
102
RTVSPost2010Prop44ColorIndex
 90
        5
102
RTVSPost2010Prop44ColorRGB
 90
      255
102
RTVSPost2010PropOp44
 70
     1
102
RTVSPost2010Prop45
280
     0
102
RTVSPost2010PropOp45
 70
     1
102
RTVSPost2010Prop46
 90
       50
102
RTVSPost2010PropOp46
 70
     1
102
RTVSPost2010Prop47
 90
       50
102
RTVSPost2010PropOp47
 70
     1
102
RTVSPost2010Prop48
 90
       50
102
RTVSPost2010PropOp48
 70
     1
102
RTVSPost2010Prop49
280
     0
102
RTVSPost2010PropOp49
 70
     1
102
RTVSPost2010Prop50
 90
       50
102
RTVSPost2010PropOp50
 70
     1
102
RTVSPost2010Prop51ColorIndex
 90
      256
102
RTVSPost2010Prop51ColorRGB
 90
-16777216
102
RTVSPost2010PropOp51
 70
     0
102
RTVSPost2010Prop52
140
1.0
102
RTVSPost2010PropOp52
 70
     0
102
RTVSPost2010Prop53
 90
        2
102
RTVSPost2010PropOp53
 70
     1
102
RTVSPost2010Prop54
  1
strokes_ogs.tif
102
RTVSPost2010PropOp54
 70
     1
102
RTVSPost2010Prop55
280
     0
102
RTVSPost2010PropOp55
 70
     1
102
RTVSPost2010Prop56
140
1.0
102
RTVSPost2010PropOp56
 70
     1
102
RTVSPost2010Prop57
140
1.0
102
RTVSPost2010PropOp57
 70
     1
  0
XRECORD
  5
34C
102
{ACAD_REACTORS
330
34B
102
}
330
34B
100
AcDbXrecord
280
     1
102
RTVSPropertyOp0
 70
     1
102
RTVSPropertyOp1
 70
     1
102
RTVSPropertyOp2
 70
     1
102
RTVSPropertyOp3
 70
     1
102
RTVSPropertyOp4
 70
     1
102
RTVSPropertyOp5
 70
     1
102
RTVSPropertyOp6
 70
     1
102
RTVSPropertyOp7
 70
     1
102
RTVSPropertyOp8
 70
     1
102
RTVSPropertyOp9
 70
     1
102
RTVSPropertyOp10
 70
     1
102
RTVSPropertyOp11
 70
     1
102
RTVSPropertyOp12
 70
     1
102
RTVSPropertyOp13
 70
     1
102
RTVSPropertyOp14
 70
     1
102
RTVSPropertyOp15
 70
     1
102
RTVSPropertyOp16
 70
     1
102
RTVSPropertyOp17
 70
     1
102
RTVSPropertyOp18
 70
     1
102
RTVSPropertyOp19
 70
     1
102
RTVSPropertyOp20
 70
     1
102
RTVSPropertyOp21
 70
     1
102
RTVSPropertyOp22
 70
     1
102
RTVSPropertyOp23
 70
     1
102
RTVSPropertyOp24
 70
     1
102
RTVSPropertyOp25
 70
     1
102
RTVSPropertyOp26
 70
     1
102
RTVSPropertyOp27
 70
     1
102
RTVSPropertyOp28
 70
     1
102
RTVSPropertyOp29
 70
     1
102
RTVSPropertyOp30
 70
     1
102
RTVSPropertyOp31
 70
     1
102
RTVSPropertyOp32
 70
     1
102
RTVSPropertyOp33
 70
     1
102
RTVSPropertyOp34
 70
     1
102
RTVSPropertyOp35
 70
     1
102
RTVSPropertyOp36
 70
     1
102
RTVSPropertyOp37
 70
     1
102
RTVSPropertyOp38
 70
     1
102
RTVSPropertyOp39
 70
     1
102
RTVSPropertyOp40
 70
     1
102
RTVSPropertyOp41
 70
     1
102
RTVSPropertyOp42
 70
     1
102
RTVSPropertyOp43
 70
     1
102
RTVSPropertyOp44
 70
     1
102
RTVSPropertyOp45
 70
     1
102
RTVSPropertyOp46
 70
     1
102
RTVSPropertyOp47
 70
     1
102
RTVSPropertyOp48
 70
     1
102
RTVSPropertyOp49
 70
     1
102
RTVSPropertyOp50
 70
     1
102
RTVSPropertyOp51
 70
     0
102
RTVSPropertyOp52
 70
     0
102
RTVSPropertyOp53
 70
     1
102
RTVSPropertyOp54
 70
     1
102
RTVSPropertyOp55
 70
     1
102
RTVSPropertyOp56
 70
     1
102
RTVSPropertyOp57
 70
     1
102
RTVSPost2010Prop28
280
     0
102
RTVSPost2010PropOp28
 70
     1
102
RTVSPost2010Prop29
280
     1
102
RTVSPost2010PropOp29
 70
     1
102
RTVSPost2010Prop30
280
     1
102
RTVSPost2010PropOp30
 70
     1
102
RTVSPost2010Prop31
280
     0
102
RTVSPost2010PropOp31
 70
     1
102
RTVSPost2010Prop32
280
     0
102
RTVSPost2010PropOp32
 70
     1
102
RTVSPost2010Prop33
280
     0
102
RTVSPost2010PropOp33
 70
     1
102
RTVSPost2010Prop34
280
     0
102
RTVSPost2010PropOp34
 70
     1
102
RTVSPost2010Prop35
280
     0
102
RTVSPost2010PropOp35
 70
     1
102
RTVSPost2010Prop36
280
     0
102
RTVSPost2010PropOp36
 70
     1
102
RTVSPost2010Prop37
 90
       50
102
RTVSPost2010PropOp37
 70
     1
102
RTVSPost2010Prop38
140
0.0
102
RTVSPost2010PropOp38
 70
     1
102
RTVSPost2010Prop39
140
1.0
102
RTVSPost2010PropOp39
 70
     1
102
RTVSPost2010Prop40
 90
        0
102
RTVSPost2010PropOp40
 70
     1
102
RTVSPost2010Prop41ColorIndex
 90
       18
102
RTVSPost2010Prop41ColorRGB
 90
        0
102
RTVSPost2010PropOp41
 70
     1
102
RTVSPost2010Prop42
 90
       50
102
RTVSPost2010PropOp42
 70
     1
102
RTVSPost2010Prop43
 90
        3
102
RTVSPost2010PropOp43
 70
     1
102
RTVSPost2010Prop44ColorIndex
 90
        5
102
RTVSPost2010Prop44ColorRGB
 90
      255
102
RTVSPost2010PropOp44
 70
     1
102
RTVSPost2010Prop45
280
     0
102
RTVSPost2010PropOp45
 70
     1
102
RTVSPost2010Prop46
 90
       50
102
RTVSPost2010PropOp46
 70
     1
102
RTVSPost2010Prop47
 90
       50
102
RTVSPost2010PropOp47
 70
     1
102
RTVSPost2010Prop48
 90
       50
102
RTVSPost2010PropOp48
 70
     1
102
RTVSPost2010Prop49
280
     0
102
RTVSPost2010PropOp49
 70
     1
102
RTVSPost2010Prop50
 90
       50
102
RTVSPost2010PropOp50
 70
     1
102
RTVSPost2010Prop51ColorIndex
 90
      256
102
RTVSPost2010Prop51ColorRGB
 90
-16777216
102
RTVSPost2010PropOp51
 70
     0
102
RTVSPost2010Prop52
140
1.0
102
RTVSPost2010PropOp52
 70
     0
102
RTVSPost2010Prop53
 90
        2
102
RTVSPost2010PropOp53
 70
     1
102
RTVSPost2010Prop54
  1
strokes_ogs.tif
102
RTVSPost2010PropOp54
 70
     1
102
RTVSPost2010Prop55
280
     0
102
RTVSPost2010PropOp55
 70
     1
102
RTVSPost2010Prop56
140
1.0
102
RTVSPost2010PropOp56
 70
     1
102
RTVSPost2010Prop57
140
1.0
102
RTVSPost2010PropOp57
 70
     1
  0
ENDSEC
  0
EOF
